  0
SECTION
  2
HEADER
  9
$ACADVER
  1
AC1018
  9
$ACADMAINTVER
 70
     0
  9
$DWGCODEPAGE
  3
ANSI_1252
  9
$INSBASE
 10
0.0
 20
0.0
 30
0.0
  9
$EXTMIN
 10
-0.87548
 20
-1.125
 30
0.0
  9
$EXTMAX
 10
0.8754999999999999
 20
1.125
 30
0.0
  9
$LIMMIN
 10
0.0
 20
0.0
  9
$LIMMAX
 10
12.0
 20
9.0
  9
$ORTHOMODE
 70
     0
  9
$REGENMODE
 70
     1
  9
$FILLMODE
 70
     1
  9
$QTEXTMODE
 70
     0
  9
$MIRRTEXT
 70
     1
  9
$LTSCALE
 40
1.0
  9
$ATTMODE
 70
     1
  9
$TEXTSIZE
 40
0.2
  9
$TRACEWID
 40
0.05
  9
$TEXTSTYLE
  7
Standard
  9
$CLAYER
  8
0
  9
$CELTYPE
  6
ByLayer
  9
$CECOLOR
 62
   256
  9
$CELTSCALE
 40
1.0
  9
$DISPSILH
 70
     0
  9
$DIMSCALE
 40
1.0
  9
$DIMASZ
 40
0.18
  9
$DIMEXO
 40
0.0625
  9
$DIMDLI
 40
0.38
  9
$DIMRND
 40
0.0
  9
$DIMDLE
 40
0.0
  9
$DIMEXE
 40
0.18
  9
$DIMTP
 40
0.0
  9
$DIMTM
 40
0.0
  9
$DIMTXT
 40
0.18
  9
$DIMCEN
 40
0.09
  9
$DIMTSZ
 40
0.0
  9
$DIMTOL
 70
     0
  9
$DIMLIM
 70
     0
  9
$DIMTIH
 70
     1
  9
$DIMTOH
 70
     1
  9
$DIMSE1
 70
     0
  9
$DIMSE2
 70
     0
  9
$DIMTAD
 70
     0
  9
$DIMZIN
 70
     0
  9
$DIMBLK
  1

  9
$DIMASO
 70
     1
  9
$DIMSHO
 70
     1
  9
$DIMPOST
  1

  9
$DIMAPOST
  1

  9
$DIMALT
 70
     0
  9
$DIMALTD
 70
     2
  9
$DIMALTF
 40
25.4
  9
$DIMLFAC
 40
1.0
  9
$DIMTOFL
 70
     0
  9
$DIMTVP
 40
0.0
  9
$DIMTIX
 70
     0
  9
$DIMSOXD
 70
     0
  9
$DIMSAH
 70
     0
  9
$DIMBLK1
  1

  9
$DIMBLK2
  1

  9
$DIMSTYLE
  2
Standard
  9
$DIMCLRD
 70
     0
  9
$DIMCLRE
 70
     0
  9
$DIMCLRT
 70
     0
  9
$DIMTFAC
 40
1.0
  9
$DIMGAP
 40
0.09
  9
$DIMJUST
 70
     0
  9
$DIMSD1
 70
     0
  9
$DIMSD2
 70
     0
  9
$DIMTOLJ
 70
     1
  9
$DIMTZIN
 70
     0
  9
$DIMALTZ
 70
     0
  9
$DIMALTTZ
 70
     0
  9
$DIMUPT
 70
     0
  9
$DIMDEC
 70
     4
  9
$DIMTDEC
 70
     4
  9
$DIMALTU
 70
     2
  9
$DIMALTTD
 70
     2
  9
$DIMTXSTY
  7
Standard
  9
$DIMAUNIT
 70
     0
  9
$DIMADEC
 70
     0
  9
$DIMALTRND
 40
0.0
  9
$DIMAZIN
 70
     0
  9
$DIMDSEP
 70
    46
  9
$DIMATFIT
 70
     3
  9
$DIMFRAC
 70
     0
  9
$DIMLDRBLK
  1

  9
$DIMLUNIT
 70
     2
  9
$DIMLWD
 70
    -2
  9
$DIMLWE
 70
    -2
  9
$DIMTMOVE
 70
     0
  9
$LUNITS
 70
     2
  9
$LUPREC
 70
     4
  9
$SKETCHINC
 40
0.1
  9
$FILLETRAD
 40
0.5
  9
$AUNITS
 70
     0
  9
$AUPREC
 70
     0
  9
$MENU
  1
.
  9
$ELEVATION
 40
0.0
  9
$PELEVATION
 40
0.0
  9
$THICKNESS
 40
0.0
  9
$LIMCHECK
 70
     0
  9
$CHAMFERA
 40
0.5
  9
$CHAMFERB
 40
0.5
  9
$CHAMFERC
 40
1.0
  9
$CHAMFERD
 40
0.0
  9
$SKPOLY
 70
     0
  9
$TDCREATE
 40
2457108.581415903
  9
$TDUCREATE
 40
2457108.539749236
  9
$TDUPDATE
 40
2457108.581415915
  9
$TDUUPDATE
 40
2457108.539749248
  9
$TDINDWG
 40
0.0000000116
  9
$TDUSRTIMER
 40
0.0000000116
  9
$USRTIMER
 70
     1
  9
$ANGBASE
 50
0.0
  9
$ANGDIR
 70
     0
  9
$PDMODE
 70
     0
  9
$PDSIZE
 40
0.0
  9
$PLINEWID
 40
0.0
  9
$SPLFRAME
 70
     0
  9
$SPLINETYPE
 70
     6
  9
$SPLINESEGS
 70
     8
  9
$HANDSEED
  5
67
  9
$SURFTAB1
 70
     6
  9
$SURFTAB2
 70
     6
  9
$SURFTYPE
 70
     6
  9
$SURFU
 70
     6
  9
$SURFV
 70
     6
  9
$UCSBASE
  2

  9
$UCSNAME
  2

  9
$UCSORG
 10
0.0
 20
0.0
 30
0.0
  9
$UCSXDIR
 10
1.0
 20
0.0
 30
0.0
  9
$UCSYDIR
 10
0.0
 20
1.0
 30
0.0
  9
$UCSORTHOREF
  2

  9
$UCSORTHOVIEW
 70
     0
  9
$UCSORGTOP
 10
0.0
 20
0.0
 30
0.0
  9
$UCSORGBOTTOM
 10
0.0
 20
0.0
 30
0.0
  9
$UCSORGLEFT
 10
0.0
 20
0.0
 30
0.0
  9
$UCSORGRIGHT
 10
0.0
 20
0.0
 30
0.0
  9
$UCSORGFRONT
 10
0.0
 20
0.0
 30
0.0
  9
$UCSORGBACK
 10
0.0
 20
0.0
 30
0.0
  9
$PUCSBASE
  2

  9
$PUCSNAME
  2

  9
$PUCSORG
 10
0.0
 20
0.0
 30
0.0
  9
$PUCSXDIR
 10
1.0
 20
0.0
 30
0.0
  9
$PUCSYDIR
 10
0.0
 20
1.0
 30
0.0
  9
$PUCSORTHOREF
  2

  9
$PUCSORTHOVIEW
 70
     0
  9
$PUCSORGTOP
 10
0.0
 20
0.0
 30
0.0
  9
$PUCSORGBOTTOM
 10
0.0
 20
0.0
 30
0.0
  9
$PUCSORGLEFT
 10
0.0
 20
0.0
 30
0.0
  9
$PUCSORGRIGHT
 10
0.0
 20
0.0
 30
0.0
  9
$PUCSORGFRONT
 10
0.0
 20
0.0
 30
0.0
  9
$PUCSORGBACK
 10
0.0
 20
0.0
 30
0.0
  9
$USERI1
 70
     0
  9
$USERI2
 70
     0
  9
$USERI3
 70
     0
  9
$USERI4
 70
     0
  9
$USERI5
 70
     0
  9
$USERR1
 40
0.0
  9
$USERR2
 40
0.0
  9
$USERR3
 40
0.0
  9
$USERR4
 40
0.0
  9
$USERR5
 40
0.0
  9
$WORLDVIEW
 70
     1
  9
$SHADEDGE
 70
     3
  9
$SHADEDIF
 70
    70
  9
$TILEMODE
 70
     1
  9
$MAXACTVP
 70
    64
  9
$PINSBASE
 10
0.0
 20
0.0
 30
0.0
  9
$PLIMCHECK
 70
     0
  9
$PEXTMIN
 10
1.000000000000000E+20
 20
1.000000000000000E+20
 30
1.000000000000000E+20
  9
$PEXTMAX
 10
-1.000000000000000E+20
 20
-1.000000000000000E+20
 30
-1.000000000000000E+20
  9
$PLIMMIN
 10
0.0
 20
0.0
  9
$PLIMMAX
 10
12.0
 20
9.0
  9
$UNITMODE
 70
     0
  9
$VISRETAIN
 70
     1
  9
$PLINEGEN
 70
     0
  9
$PSLTSCALE
 70
     1
  9
$TREEDEPTH
 70
  3020
  9
$CMLSTYLE
  2
Standard
  9
$CMLJUST
 70
     0
  9
$CMLSCALE
 40
1.0
  9
$PROXYGRAPHICS
 70
     1
  9
$MEASUREMENT
 70
     0
  9
$CELWEIGHT
370
    -1
  9
$ENDCAPS
280
     0
  9
$JOINSTYLE
280
     0
  9
$LWDISPLAY
290
     0
  9
$INSUNITS
 70
     5
  9
$HYPERLINKBASE
  1

  9
$STYLESHEET
  1

  9
$XEDIT
290
     1
  9
$CEPSNTYPE
380
     0
  9
$PSTYLEMODE
290
     0
  9
$FINGERPRINTGUID
  2
{FAEB1C30-E019-11D5-929B-00C0DF256EC4}
  9
$VERSIONGUID
  2
{FAEB1C32-E019-11D5-929B-00C0DF256EC4}
  9
$EXTNAMES
290
     1
  9
$PSVPSCALE
 40
0.0
  9
$OLESTARTUP
290
     0
  9
$SORTENTS
280
   127
  9
$INDEXCTL
280
     0
  9
$HIDETEXT
280
     1
  9
$XCLIPFRAME
290
     0
  9
$HALOGAP
280
     0
  9
$OBSCOLOR
 70
   257
  9
$OBSLTYPE
280
     0
  9
$INTERSECTIONDISPLAY
280
     0
  9
$INTERSECTIONCOLOR
 70
   257
  9
$DIMASSOC
280
     2
  9
$PROJECTNAME
  1

  0
ENDSEC
  0
SECTION
  2
CLASSES
  0
CLASS
  1
ACDBDICTIONARYWDFLT
  2
AcDbDictionaryWithDefault
  3
ObjectDBX Classes
 90
        0
 91
        1
280
     0
281
     0
  0
ENDSEC
  0
SECTION
  2
TABLES
  0
TABLE
  2
VPORT
  5
8
330
0
100
AcDbSymbolTable
 70
     2
  0
VPORT
  5
29
330
8
100
AcDbSymbolTableRecord
100
AcDbViewportTableRecord
  2
*Active
 70
     0
 10
0.0
 20
0.0
 11
1.0
 21
1.0
 12
10.42990654205607
 22
4.5
 13
0.0
 23
0.0
 14
0.5
 24
0.5
 15
0.5
 25
0.5
 16
0.0
 26
0.0
 36
1.0
 17
0.0
 27
0.0
 37
0.0
 40
9.0
 41
1.972972972850329
 42
50.0
 43
0.0
 44
0.0
 50
0.0
 51
0.0
 71
     0
 72
   100
 73
     1
 74
     3
 75
     0
 76
     0
 77
     0
 78
     0
281
     0
 65
     1
110
0.0
120
0.0
130
0.0
111
1.0
121
0.0
131
0.0
112
0.0
122
1.0
132
0.0
 79
     0
146
0.0
  0
ENDTAB
  0
TABLE
  2
LTYPE
  5
5
330
0
100
AcDbSymbolTable
 70
     1
  0
LTYPE
  5
14
330
5
100
AcDbSymbolTableRecord
100
AcDbLinetypeTableRecord
  2
ByBlock
 70
     0
  3

 72
    65
 73
     0
 40
0.0
  0
LTYPE
  5
15
330
5
100
AcDbSymbolTableRecord
100
AcDbLinetypeTableRecord
  2
ByLayer
 70
     0
  3

 72
    65
 73
     0
 40
0.0
  0
LTYPE
  5
16
330
5
100
AcDbSymbolTableRecord
100
AcDbLinetypeTableRecord
  2
Continuous
 70
     0
  3
Solid line
 72
    65
 73
     0
 40
0.0
  0
ENDTAB
  0
TABLE
  2
LAYER
  5
2
330
0
100
AcDbSymbolTable
 70
     2
  0
LAYER
  5
10
330
2
100
AcDbSymbolTableRecord
100
AcDbLayerTableRecord
  2
0
 70
     0
 62
     7
  6
Continuous
370
    -3
390
F
  0
LAYER
  5
2B
330
2
100
AcDbSymbolTableRecord
100
AcDbLayerTableRecord
  2
Plan 1
 70
     0
 62
     7
  6
Continuous
370
    -3
390
F
  0
ENDTAB
  0
TABLE
  2
STYLE
  5
3
330
0
100
AcDbSymbolTable
 70
     1
  0
STYLE
  5
11
330
3
100
AcDbSymbolTableRecord
100
AcDbTextStyleTableRecord
  2
Standard
 70
     0
 40
0.0
 41
1.0
 50
0.0
 71
     0
 42
0.2
  3
txt
  4

  0
ENDTAB
  0
TABLE
  2
VIEW
  5
6
330
0
100
AcDbSymbolTable
 70
     0
  0
ENDTAB
  0
TABLE
  2
UCS
  5
7
330
0
100
AcDbSymbolTable
 70
     0
  0
ENDTAB
  0
TABLE
  2
APPID
  5
9
330
0
100
AcDbSymbolTable
 70
     2
  0
APPID
  5
12
330
9
100
AcDbSymbolTableRecord
100
AcDbRegAppTableRecord
  2
ACAD
 70
     0
  0
APPID
  5
2A
330
9
100
AcDbSymbolTableRecord
100
AcDbRegAppTableRecord
  2
ODA
 70
     0
  0
ENDTAB
  0
TABLE
  2
DIMSTYLE
  5
A
330
0
100
AcDbSymbolTable
 70
     1
100
AcDbDimStyleTable
  0
DIMSTYLE
105
27
330
A
100
AcDbSymbolTableRecord
100
AcDbDimStyleTableRecord
  2
Standard
 70
     0
340
11
  0
ENDTAB
  0
TABLE
  2
BLOCK_RECORD
  5
1
330
0
100
AcDbSymbolTable
 70
     1
  0
BLOCK_RECORD
  5
1F
330
1
100
AcDbSymbolTableRecord
100
AcDbBlockTableRecord
  2
*Model_Space
340
22
  0
BLOCK_RECORD
  5
1B
330
1
100
AcDbSymbolTableRecord
100
AcDbBlockTableRecord
  2
*Paper_Space
340
1E
  0
BLOCK_RECORD
  5
23
330
1
100
AcDbSymbolTableRecord
100
AcDbBlockTableRecord
  2
*Paper_Space0
340
26
  0
ENDTAB
  0
ENDSEC
  0
SECTION
  2
BLOCKS
  0
BLOCK
  5
20
330
1F
100
AcDbEntity
  8
0
100
AcDbBlockBegin
  2
*Model_Space
 70
     0
 71
     0
 10
0.0
 20
0.0
 30
0.0
  3
*Model_Space
  1

  0
ENDBLK
  5
21
330
1F
100
AcDbEntity
  8
0
100
AcDbBlockEnd
  0
BLOCK
  5
1C
330
1B
100
AcDbEntity
 67
     1
  8
0
100
AcDbBlockBegin
  2
*Paper_Space
 70
     0
 71
     0
 10
0.0
 20
0.0
 30
0.0
  3
*Paper_Space
  1

  0
ENDBLK
  5
1D
330
1B
100
AcDbEntity
 67
     1
  8
0
100
AcDbBlockEnd
  0
BLOCK
  5
24
330
23
100
AcDbEntity
  8
0
100
AcDbBlockBegin
  2
*Paper_Space0
 70
     0
 71
     0
 10
0.0
 20
0.0
 30
0.0
  3
*Paper_Space0
  1

  0
ENDBLK
  5
25
330
23
100
AcDbEntity
  8
0
100
AcDbBlockEnd
  0
ENDSEC
  0
SECTION
  2
ENTITIES
  0
SPLINE
  5
2C
330
1F
100
AcDbEntity
  8
Plan 1
100
AcDbSpline
210
0.0
220
0.0
230
1.0
 70
    11
 71
     3
 72
    40
 73
    36
 74
     0
 42
0.0000000001
 43
0.0000000001
 40
0.0
 40
0.0
 40
0.0
 40
0.0
 40
0.1111111111111111
 40
0.1111111111111111
 40
0.1111111111111111
 40
0.1111111111111111
 40
0.2222222222222222
 40
0.2222222222222222
 40
0.2222222222222222
 40
0.2222222222222222
 40
0.3333333333333333
 40
0.3333333333333333
 40
0.3333333333333333
 40
0.3333333333333333
 40
0.4444444444444444
 40
0.4444444444444444
 40
0.4444444444444444
 40
0.4444444444444444
 40
0.5555555555555556
 40
0.5555555555555556
 40
0.5555555555555556
 40
0.5555555555555556
 40
0.6666666666666667
 40
0.6666666666666667
 40
0.6666666666666667
 40
0.6666666666666667
 40
0.7777777777777779
 40
0.7777777777777779
 40
0.7777777777777779
 40
0.7777777777777779
 40
0.8888888888888891
 40
0.8888888888888891
 40
0.8888888888888891
 40
0.8888888888888891
 40
1.0
 40
1.0
 40
1.0
 40
1.0
 10
-0.26954
 20
1.01807
 30
0.0
 10
-0.26954
 20
1.01807
 30
0.0
 10
-0.26954
 20
0.9467800000000001
 30
0.0
 10
-0.26954
 20
0.9467800000000001
 30
0.0
 10
-0.26954
 20
0.9467800000000001
 30
0.0
 10
-0.26954
 20
0.9245000000000001
 30
0.0
 10
-0.18935
 20
0.9913400000000001
 30
0.0
 10
-0.16261
 20
1.00916
 30
0.0
 10
-0.16261
 20
1.00916
 30
0.0
 10
-0.12697
 20
1.02698
 30
0.0
 10
-0.06459
 20
1.04926
 30
0.0
 10
-0.01113
 20
1.04926
 30
0.0
 10
-0.01113
 20
1.04926
 30
0.0
 10
0.03342
 20
1.04926
 30
0.0
 10
0.07352
 20
1.0448
 30
0.0
 10
0.10917
 20
1.03589
 30
0.0
 10
0.10917
 20
1.03589
 30
0.0
 10
0.14035
 20
1.02698
 30
0.0
 10
0.20273
 20
0.9913400000000001
 30
0.0
 10
0.20273
 20
1.01361
 30
0.0
 10
0.20273
 20
1.01361
 30
0.0
 10
0.20273
 20
1.01361
 30
0.0
 10
0.20273
 20
1.03589
 30
0.0
 10
0.20273
 20
1.03589
 30
0.0
 10
0.20273
 20
1.03589
 30
0.0
 10
0.20273
 20
1.07599
 30
0.0
 10
0.06461
 20
1.125
 30
0.0
 10
0.01115
 20
1.125
 30
0.0
 10
0.01115
 20
1.125
 30
0.0
 10
0.01115
 20
1.125
 30
0.0
 10
-0.08242
 20
1.125
 30
0.0
 10
-0.08242
 20
1.125
 30
0.0
 10
-0.08242
 20
1.125
 30
0.0
 10
-0.13588
 20
1.125
 30
0.0
 10
-0.26954
 20
1.05817
 30
0.0
 10
-0.26954
 20
1.01807
 30
0.0
  0
SPLINE
  5
2D
330
1F
100
AcDbEntity
  8
Plan 1
100
AcDbSpline
210
0.0
220
0.0
230
1.0
 70
    11
 71
     3
 72
    28
 73
    24
 74
     0
 42
0.0000000001
 43
0.0000000001
 40
0.0
 40
0.0
 40
0.0
 40
0.0
 40
0.1666666666666667
 40
0.1666666666666667
 40
0.1666666666666667
 40
0.1666666666666667
 40
0.3333333333333333
 40
0.3333333333333333
 40
0.3333333333333333
 40
0.3333333333333333
 40
0.5
 40
0.5
 40
0.5
 40
0.5
 40
0.6666666666666666
 40
0.6666666666666666
 40
0.6666666666666666
 40
0.6666666666666666
 40
0.8333333333333333
 40
0.8333333333333333
 40
0.8333333333333333
 40
0.8333333333333333
 40
1.0
 40
1.0
 40
1.0
 40
1.0
 10
0.30075
 20
0.9646000000000001
 30
0.0
 10
0.30075
 20
0.9646000000000001
 30
0.0
 10
0.33639
 20
0.9646000000000001
 30
0.0
 10
0.33639
 20
0.9646000000000001
 30
0.0
 10
0.33639
 20
0.9646000000000001
 30
0.0
 10
0.39877
 20
0.9646000000000001
 30
0.0
 10
0.41659
 20
0.9245000000000001
 30
0.0
 10
0.42996
 20
0.9735100000000001
 30
0.0
 10
0.42996
 20
0.9735100000000001
 30
0.0
 10
0.42996
 20
0.9735100000000001
 30
0.0
 10
0.5948100000000001
 20
0.8398500000000001
 30
0.0
 10
0.5948100000000001
 20
0.8398500000000001
 30
0.0
 10
0.5948100000000001
 20
0.8398500000000001
 30
0.0
 10
0.6170800000000001
 20
0.9512400000000001
 30
0.0
 10
0.45223
 20
1.06262
 30
0.0
 10
0.33194
 20
1.06262
 30
0.0
 10
0.33194
 20
1.06262
 30
0.0
 10
0.29184
 20
1.06262
 30
0.0
 10
0.23392
 20
1.05817
 30
0.0
 10
0.23392
 20
1.02698
 30
0.0
 10
0.23392
 20
1.02698
 30
0.0
 10
0.22055
 20
0.9423300000000001
 30
0.0
 10
0.25174
 20
0.9646000000000001
 30
0.0
 10
0.30075
 20
0.9646000000000001
 30
0.0
  0
SPLINE
  5
2E
330
1F
100
AcDbEntity
  8
Plan 1
100
AcDbSpline
210
0.0
220
0.0
230
1.0
 70
    11
 71
     3
 72
    28
 73
    24
 74
     0
 42
0.0000000001
 43
0.0000000001
 40
0.0
 40
0.0
 40
0.0
 40
0.0
 40
0.1666666666666667
 40
0.1666666666666667
 40
0.1666666666666667
 40
0.1666666666666667
 40
0.3333333333333333
 40
0.3333333333333333
 40
0.3333333333333333
 40
0.3333333333333333
 40
0.5
 40
0.5
 40
0.5
 40
0.5
 40
0.6666666666666666
 40
0.6666666666666666
 40
0.6666666666666666
 40
0.6666666666666666
 40
0.8333333333333333
 40
0.8333333333333333
 40
0.8333333333333333
 40
0.8333333333333333
 40
1.0
 40
1.0
 40
1.0
 40
1.0
 10
0.00224
 20
0.9779700000000001
 30
0.0
 10
0.00224
 20
0.9779700000000001
 30
0.0
 10
0.01115
 20
0.9779700000000001
 30
0.0
 10
0.01115
 20
0.9779700000000001
 30
0.0
 10
0.01115
 20
0.9779700000000001
 30
0.0
 10
0.10026
 20
0.9779700000000001
 30
0.0
 10
0.15818
 20
0.9245000000000001
 30
0.0
 10
0.18491
 20
0.92005
 30
0.0
 10
0.18491
 20
0.92005
 30
0.0
 10
0.176
 20
1.01361
 30
0.0
 10
0.10471
 20
1.02698
 30
0.0
 10
0.00669
 20
1.02698
 30
0.0
 10
0.00669
 20
1.02698
 30
0.0
 10
-0.06905
 20
1.02698
 30
0.0
 10
-0.18489
 20
0.9868800000000001
 30
0.0
 10
-0.20717
 20
0.9378700000000001
 30
0.0
 10
-0.20717
 20
0.9378700000000001
 30
0.0
 10
-0.22944
 20
0.8977700000000001
 30
0.0
 10
-0.14479
 20
0.9467800000000001
 30
0.0
 10
-0.12251
 20
0.95569
 30
0.0
 10
-0.12251
 20
0.95569
 30
0.0
 10
-0.09133
 20
0.9646000000000001
 30
0.0
 10
-0.03786
 20
0.9779700000000001
 30
0.0
 10
0.00224
 20
0.9779700000000001
 30
0.0
  0
SPLINE
  5
2F
330
1F
100
AcDbEntity
  8
Plan 1
100
AcDbSpline
210
0.0
220
0.0
230
1.0
 70
    11
 71
     3
 72
    36
 73
    32
 74
     0
 42
0.0000000001
 43
0.0000000001
 40
0.0
 40
0.0
 40
0.0
 40
0.0
 40
0.125
 40
0.125
 40
0.125
 40
0.125
 40
0.25
 40
0.25
 40
0.25
 40
0.25
 40
0.375
 40
0.375
 40
0.375
 40
0.375
 40
0.5
 40
0.5
 40
0.5
 40
0.5
 40
0.625
 40
0.625
 40
0.625
 40
0.625
 40
0.75
 40
0.75
 40
0.75
 40
0.75
 40
0.875
 40
0.875
 40
0.875
 40
0.875
 40
1.0
 40
1.0
 40
1.0
 40
1.0
 10
0.23837
 20
0.9289600000000001
 30
0.0
 10
0.23837
 20
0.9289600000000001
 30
0.0
 10
0.23392
 20
0.8888600000000001
 30
0.0
 10
0.23392
 20
0.8888600000000001
 30
0.0
 10
0.23392
 20
0.8888600000000001
 30
0.0
 10
0.31412
 20
0.8888600000000001
 30
0.0
 10
0.35422
 20
0.8977700000000001
 30
0.0
 10
0.4255
 20
0.87104
 30
0.0
 10
0.4255
 20
0.87104
 30
0.0
 10
0.47006
 20
0.8532200000000001
 30
0.0
 10
0.55025
 20
0.78639
 30
0.0
 10
0.56362
 20
0.78193
 30
0.0
 10
0.56362
 20
0.78193
 30
0.0
 10
0.56362
 20
0.7953000000000001
 30
0.0
 10
0.5725300000000001
 20
0.8042100000000001
 30
0.0
 10
0.5725300000000001
 20
0.8086600000000001
 30
0.0
 10
0.5725300000000001
 20
0.8086600000000001
 30
0.0
 10
0.5725300000000001
 20
0.8309400000000001
 30
0.0
 10
0.48788
 20
0.88441
 30
0.0
 10
0.4656
 20
0.8977700000000001
 30
0.0
 10
0.4656
 20
0.8977700000000001
 30
0.0
 10
0.43441
 20
0.9155900000000001
 30
0.0
 10
0.36758
 20
0.9378700000000001
 30
0.0
 10
0.31857
 20
0.9378700000000001
 30
0.0
 10
0.31857
 20
0.9378700000000001
 30
0.0
 10
0.31857
 20
0.9378700000000001
 30
0.0
 10
0.28738
 20
0.9378700000000001
 30
0.0
 10
0.28738
 20
0.9378700000000001
 30
0.0
 10
0.28738
 20
0.9378700000000001
 30
0.0
 10
0.26511
 20
0.9378700000000001
 30
0.0
 10
0.2562
 20
0.93342
 30
0.0
 10
0.23837
 20
0.9289600000000001
 30
0.0
  0
SPLINE
  5
30
330
1F
100
AcDbEntity
  8
Plan 1
100
AcDbSpline
210
0.0
220
0.0
230
1.0
 70
    11
 71
     3
 72
    56
 73
    52
 74
     0
 42
0.0000000001
 43
0.0000000001
 40
0.0
 40
0.0
 40
0.0
 40
0.0
 40
0.0769230769230769
 40
0.0769230769230769
 40
0.0769230769230769
 40
0.0769230769230769
 40
0.1538461538461539
 40
0.1538461538461539
 40
0.1538461538461539
 40
0.1538461538461539
 40
0.2307692307692308
 40
0.2307692307692308
 40
0.2307692307692308
 40
0.2307692307692308
 40
0.3076923076923077
 40
0.3076923076923077
 40
0.3076923076923077
 40
0.3076923076923077
 40
0.3846153846153846
 40
0.3846153846153846
 40
0.3846153846153846
 40
0.3846153846153846
 40
0.4615384615384616
 40
0.4615384615384616
 40
0.4615384615384616
 40
0.4615384615384616
 40
0.5384615384615386
 40
0.5384615384615386
 40
0.5384615384615386
 40
0.5384615384615386
 40
0.6153846153846154
 40
0.6153846153846154
 40
0.6153846153846154
 40
0.6153846153846154
 40
0.6923076923076923
 40
0.6923076923076923
 40
0.6923076923076923
 40
0.6923076923076923
 40
0.7692307692307692
 40
0.7692307692307692
 40
0.7692307692307692
 40
0.7692307692307692
 40
0.846153846153846
 40
0.846153846153846
 40
0.846153846153846
 40
0.846153846153846
 40
0.9230769230769229
 40
0.9230769230769229
 40
0.9230769230769229
 40
0.9230769230769229
 40
1.0
 40
1.0
 40
1.0
 40
1.0
 10
-0.1136
 20
0.73292
 30
0.0
 10
-0.1136
 20
0.73292
 30
0.0
 10
-0.1136
 20
0.68837
 30
0.0
 10
-0.1136
 20
0.68837
 30
0.0
 10
-0.1136
 20
0.68837
 30
0.0
 10
-0.1136
 20
0.6660900000000001
 30
0.0
 10
-0.12251
 20
0.675
 30
0.0
 10
-0.12251
 20
0.64827
 30
0.0
 10
-0.12251
 20
0.64827
 30
0.0
 10
-0.0245
 20
0.675
 30
0.0
 10
0.0557
 20
0.6660900000000001
 30
0.0
 10
0.14481
 20
0.6304500000000001
 30
0.0
 10
0.14481
 20
0.6304500000000001
 30
0.0
 10
0.15372
 20
0.6349
 30
0.0
 10
0.17154
 20
0.675
 30
0.0
 10
0.16263
 20
0.6928200000000001
 30
0.0
 10
0.16263
 20
0.6928200000000001
 30
0.0
 10
0.14927
 20
0.7106400000000001
 30
0.0
 10
0.12699
 20
0.72401
 30
0.0
 10
0.10471
 20
0.73738
 30
0.0
 10
0.10471
 20
0.73738
 30
0.0
 10
0.00669
 20
0.7908400000000001
 30
0.0
 10
0.03342
 20
0.7418300000000001
 30
0.0
 10
-0.05123
 20
0.73738
 30
0.0
 10
-0.05123
 20
0.73738
 30
0.0
 10
-0.03341
 20
0.7641100000000001
 30
0.0
 10
-0.00667
 20
0.78193
 30
0.0
 10
0.03342
 20
0.78193
 30
0.0
 10
0.03342
 20
0.78193
 30
0.0
 10
0.10026
 20
0.78193
 30
0.0
 10
0.1359
 20
0.74629
 30
0.0
 10
0.17154
 20
0.7418300000000001
 30
0.0
 10
0.17154
 20
0.7418300000000001
 30
0.0
 10
0.17154
 20
0.7418300000000001
 30
0.0
 10
0.18491
 20
0.86658
 30
0.0
 10
0.18491
 20
0.86658
 30
0.0
 10
0.18491
 20
0.86658
 30
0.0
 10
0.15372
 20
0.8755000000000001
 30
0.0
 10
0.12253
 20
0.92005
 30
0.0
 10
0.06461
 20
0.92005
 30
0.0
 10
0.06461
 20
0.92005
 30
0.0
 10
0.06461
 20
0.92005
 30
0.0
 10
-0.00222
 20
0.92005
 30
0.0
 10
-0.00222
 20
0.92005
 30
0.0
 10
-0.00222
 20
0.92005
 30
0.0
 10
-0.06459
 20
0.92005
 30
0.0
 10
-0.14479
 20
0.8888600000000001
 30
0.0
 10
-0.17598
 20
0.8621300000000001
 30
0.0
 10
-0.17598
 20
0.8621300000000001
 30
0.0
 10
-0.24727
 20
0.7997500000000001
 30
0.0
 10
-0.1136
 20
0.7774800000000001
 30
0.0
 10
-0.1136
 20
0.73292
 30
0.0
  0
SPLINE
  5
31
330
1F
100
AcDbEntity
  8
Plan 1
100
AcDbSpline
210
0.0
220
0.0
230
1.0
 70
    11
 71
     3
 72
    48
 73
    44
 74
     0
 42
0.0000000001
 43
0.0000000001
 40
0.0
 40
0.0
 40
0.0
 40
0.0
 40
0.0909090909090909
 40
0.0909090909090909
 40
0.0909090909090909
 40
0.0909090909090909
 40
0.1818181818181818
 40
0.1818181818181818
 40
0.1818181818181818
 40
0.1818181818181818
 40
0.2727272727272727
 40
0.2727272727272727
 40
0.2727272727272727
 40
0.2727272727272727
 40
0.3636363636363637
 40
0.3636363636363637
 40
0.3636363636363637
 40
0.3636363636363637
 40
0.4545454545454546
 40
0.4545454545454546
 40
0.4545454545454546
 40
0.4545454545454546
 40
0.5454545454545455
 40
0.5454545454545455
 40
0.5454545454545455
 40
0.5454545454545455
 40
0.6363636363636365
 40
0.6363636363636365
 40
0.6363636363636365
 40
0.6363636363636365
 40
0.7272727272727274
 40
0.7272727272727274
 40
0.7272727272727274
 40
0.7272727272727274
 40
0.8181818181818183
 40
0.8181818181818183
 40
0.8181818181818183
 40
0.8181818181818183
 40
0.9090909090909093
 40
0.9090909090909093
 40
0.9090909090909093
 40
0.9090909090909093
 40
1.0
 40
1.0
 40
1.0
 40
1.0
 10
-0.6616200000000001
 20
0.7774800000000001
 30
0.0
 10
-0.6616200000000001
 20
0.7774800000000001
 30
0.0
 10
-0.6616200000000001
 20
0.7641100000000001
 30
0.0
 10
-0.6616200000000001
 20
0.7641100000000001
 30
0.0
 10
-0.6616200000000001
 20
0.7641100000000001
 30
0.0
 10
-0.6616200000000001
 20
0.74629
 30
0.0
 10
-0.65271
 20
0.73292
 30
0.0
 10
-0.6482500000000001
 20
0.72401
 30
0.0
 10
-0.6482500000000001
 20
0.72401
 30
0.0
 10
-0.5769700000000001
 20
0.72401
 30
0.0
 10
-0.5502400000000001
 20
0.7774800000000001
 30
0.0
 10
-0.5012300000000001
 20
0.8042100000000001
 30
0.0
 10
-0.5012300000000001
 20
0.8042100000000001
 30
0.0
 10
-0.43885
 20
0.8354
 30
0.0
 10
-0.3542
 20
0.8354
 30
0.0
 10
-0.31855
 20
0.8487600000000001
 30
0.0
 10
-0.31855
 20
0.8487600000000001
 30
0.0
 10
-0.30964
 20
0.87104
 30
0.0
 10
-0.32746
 20
0.9111400000000001
 30
0.0
 10
-0.35865
 20
0.9111400000000001
 30
0.0
 10
-0.35865
 20
0.9111400000000001
 30
0.0
 10
-0.35865
 20
0.9111400000000001
 30
0.0
 10
-0.54132
 20
0.88441
 30
0.0
 10
-0.54132
 20
0.88441
 30
0.0
 10
-0.54132
 20
0.88441
 30
0.0
 10
-0.54132
 20
0.88441
 30
0.0
 10
-0.54132
 20
0.8977700000000001
 30
0.0
 10
-0.54132
 20
0.8977700000000001
 30
0.0
 10
-0.54132
 20
0.8977700000000001
 30
0.0
 10
-0.54132
 20
0.8977700000000001
 30
0.0
 10
-0.31855
 20
0.9512400000000001
 30
0.0
 10
-0.31855
 20
0.9512400000000001
 30
0.0
 10
-0.31855
 20
0.9512400000000001
 30
0.0
 10
-0.31855
 20
0.9512400000000001
 30
0.0
 10
-0.30964
 20
0.9467800000000001
 30
0.0
 10
-0.30964
 20
0.9467800000000001
 30
0.0
 10
-0.30964
 20
0.9467800000000001
 30
0.0
 10
-0.30964
 20
0.9467800000000001
 30
0.0
 10
-0.34083
 20
1.02252
 30
0.0
 10
-0.34083
 20
1.02252
 30
0.0
 10
-0.34083
 20
1.02252
 30
0.0
 10
-0.47895
 20
1.02252
 30
0.0
 10
-0.6616200000000001
 20
0.9111400000000001
 30
0.0
 10
-0.6616200000000001
 20
0.7774800000000001
 30
0.0
  0
SPLINE
  5
32
330
1F
100
AcDbEntity
  8
Plan 1
100
AcDbSpline
210
0.0
220
0.0
230
1.0
 70
    11
 71
     3
 72
    24
 73
    20
 74
     0
 42
0.0000000001
 43
0.0000000001
 40
0.0
 40
0.0
 40
0.0
 40
0.0
 40
0.2
 40
0.2
 40
0.2
 40
0.2
 40
0.4
 40
0.4
 40
0.4
 40
0.4
 40
0.6000000000000001
 40
0.6000000000000001
 40
0.6000000000000001
 40
0.6000000000000001
 40
0.8
 40
0.8
 40
0.8
 40
0.8
 40
1.0
 40
1.0
 40
1.0
 40
1.0
 10
0.8131200000000001
 20
0.57252
 30
0.0
 10
0.8131200000000001
 20
0.6349
 30
0.0
 10
0.7908500000000001
 20
0.7061900000000001
 30
0.0
 10
0.7641100000000001
 20
0.7418300000000001
 30
0.0
 10
0.7641100000000001
 20
0.7418300000000001
 30
0.0
 10
0.75075
 20
0.76856
 30
0.0
 10
0.6705500000000001
 20
0.8487600000000001
 30
0.0
 10
0.6349100000000001
 20
0.8131200000000001
 30
0.0
 10
0.6349100000000001
 20
0.8131200000000001
 30
0.0
 10
0.6170800000000001
 20
0.7908400000000001
 30
0.0
 10
0.6349100000000001
 20
0.76856
 30
0.0
 10
0.6438200000000001
 20
0.73292
 30
0.0
 10
0.6438200000000001
 20
0.73292
 30
0.0
 10
0.6571800000000001
 20
0.7017300000000001
 30
0.0
 10
0.6794600000000001
 20
0.7106400000000001
 30
0.0
 10
0.7151000000000001
 20
0.6928200000000001
 30
0.0
 10
0.7151000000000001
 20
0.6928200000000001
 30
0.0
 10
0.7641100000000001
 20
0.6616300000000001
 30
0.0
 10
0.79976
 20
0.57252
 30
0.0
 10
0.8131200000000001
 20
0.57252
 30
0.0
  0
SPLINE
  5
33
330
1F
100
AcDbEntity
  8
Plan 1
100
AcDbSpline
210
0.0
220
0.0
230
1.0
 70
    11
 71
     3
 72
    44
 73
    40
 74
     0
 42
0.0000000001
 43
0.0000000001
 40
0.0
 40
0.0
 40
0.0
 40
0.0
 40
0.1
 40
0.1
 40
0.1
 40
0.1
 40
0.2
 40
0.2
 40
0.2
 40
0.2
 40
0.3
 40
0.3
 40
0.3
 40
0.3
 40
0.4
 40
0.4
 40
0.4
 40
0.4
 40
0.5
 40
0.5
 40
0.5
 40
0.5
 40
0.6
 40
0.6
 40
0.6
 40
0.6
 40
0.7
 40
0.7
 40
0.7
 40
0.7
 40
0.7999999999999999
 40
0.7999999999999999
 40
0.7999999999999999
 40
0.7999999999999999
 40
0.8999999999999999
 40
0.8999999999999999
 40
0.8999999999999999
 40
0.8999999999999999
 40
1.0
 40
1.0
 40
1.0
 40
1.0
 10
0.22055
 20
0.8309400000000001
 30
0.0
 10
0.22055
 20
0.8309400000000001
 30
0.0
 10
0.22055
 20
0.5636100000000001
 30
0.0
 10
0.22055
 20
0.5636100000000001
 30
0.0
 10
0.22055
 20
0.5636100000000001
 30
0.0
 10
0.22055
 20
0.5636100000000001
 30
0.0
 10
0.25174
 20
0.5636100000000001
 30
0.0
 10
0.25174
 20
0.5636100000000001
 30
0.0
 10
0.25174
 20
0.5636100000000001
 30
0.0
 10
0.38095
 20
0.5636100000000001
 30
0.0
 10
0.3453000000000001
 20
0.4789600000000001
 30
0.0
 10
0.4433200000000001
 20
0.5680700000000001
 30
0.0
 10
0.4433200000000001
 20
0.5680700000000001
 30
0.0
 10
0.4789700000000001
 20
0.5948
 30
0.0
 10
0.5458000000000001
 20
0.68391
 30
0.0
 10
0.5458000000000001
 20
0.7418300000000001
 30
0.0
 10
0.5458000000000001
 20
0.7418300000000001
 30
0.0
 10
0.5458000000000001
 20
0.7418300000000001
 30
0.0
 10
0.5458000000000001
 20
0.7552000000000001
 30
0.0
 10
0.5458000000000001
 20
0.7552000000000001
 30
0.0
 10
0.5458000000000001
 20
0.7552000000000001
 30
0.0
 10
0.5458000000000001
 20
0.8086600000000001
 30
0.0
 10
0.3943100000000001
 20
0.8131200000000001
 30
0.0
 10
0.3274800000000001
 20
0.8131200000000001
 30
0.0
 10
0.3274800000000001
 20
0.8131200000000001
 30
0.0
 10
0.3274800000000001
 20
0.8131200000000001
 30
0.0
 10
0.32303
 20
0.82203
 30
0.0
 10
0.32303
 20
0.82203
 30
0.0
 10
0.32303
 20
0.82203
 30
0.0
 10
0.32303
 20
0.82203
 30
0.0
 10
0.41659
 20
0.8354
 30
0.0
 10
0.41659
 20
0.8354
 30
0.0
 10
0.41659
 20
0.8354
 30
0.0
 10
0.40322
 20
0.8532200000000001
 30
0.0
 10
0.3453000000000001
 20
0.86658
 30
0.0
 10
0.31857
 20
0.86658
 30
0.0
 10
0.31857
 20
0.86658
 30
0.0
 10
0.29184
 20
0.86658
 30
0.0
 10
0.22055
 20
0.8532200000000001
 30
0.0
 10
0.22055
 20
0.8309400000000001
 30
0.0
  0
SPLINE
  5
34
330
1F
100
AcDbEntity
  8
Plan 1
100
AcDbSpline
210
0.0
220
0.0
230
1.0
 70
    11
 71
     3
 72
    44
 73
    40
 74
     0
 42
0.0000000001
 43
0.0000000001
 40
0.0
 40
0.0
 40
0.0
 40
0.0
 40
0.1
 40
0.1
 40
0.1
 40
0.1
 40
0.2
 40
0.2
 40
0.2
 40
0.2
 40
0.3
 40
0.3
 40
0.3
 40
0.3
 40
0.4
 40
0.4
 40
0.4
 40
0.4
 40
0.5
 40
0.5
 40
0.5
 40
0.5
 40
0.6
 40
0.6
 40
0.6
 40
0.6
 40
0.7
 40
0.7
 40
0.7
 40
0.7
 40
0.7999999999999999
 40
0.7999999999999999
 40
0.7999999999999999
 40
0.7999999999999999
 40
0.8999999999999999
 40
0.8999999999999999
 40
0.8999999999999999
 40
0.8999999999999999
 40
1.0
 40
1.0
 40
1.0
 40
1.0
 10
-0.12697
 20
0.5769800000000001
 30
0.0
 10
-0.10915
 20
0.55025
 30
0.0
 10
-0.11806
 20
0.5814400000000001
 30
0.0
 10
-0.10024
 20
0.55916
 30
0.0
 10
-0.10024
 20
0.55916
 30
0.0
 10
-0.08242
 20
0.53688
 30
0.0
 10
-0.10024
 20
0.54579
 30
0.0
 10
-0.09133
 20
0.5279700000000001
 30
0.0
 10
-0.09133
 20
0.5279700000000001
 30
0.0
 10
-0.07796
 20
0.51015
 30
0.0
 10
-0.04677
 20
0.52351
 30
0.0
 10
-0.01113
 20
0.52351
 30
0.0
 10
-0.01113
 20
0.52351
 30
0.0
 10
-0.01113
 20
0.52351
 30
0.0
 10
0.02451
 20
0.52351
 30
0.0
 10
0.02451
 20
0.52351
 30
0.0
 10
0.02451
 20
0.52351
 30
0.0
 10
0.0557
 20
0.52351
 30
0.0
 10
0.06907
 20
0.51015
 30
0.0
 10
0.08689
 20
0.51015
 30
0.0
 10
0.08689
 20
0.51015
 30
0.0
 10
0.08689
 20
0.51015
 30
0.0
 10
0.11362
 20
0.51015
 30
0.0
 10
0.11362
 20
0.51015
 30
0.0
 10
0.11362
 20
0.51015
 30
0.0
 10
0.1359
 20
0.51015
 30
0.0
 10
0.1359
 20
0.54579
 30
0.0
 10
0.1359
 20
0.5680700000000001
 30
0.0
 10
0.1359
 20
0.5680700000000001
 30
0.0
 10
0.11808
 20
0.5769800000000001
 30
0.0
 10
0.00669
 20
0.6081700000000001
 30
0.0
 10
-0.02004
 20
0.6081700000000001
 30
0.0
 10
-0.02004
 20
0.6081700000000001
 30
0.0
 10
-0.02004
 20
0.6081700000000001
 30
0.0
 10
-0.03786
 20
0.6081700000000001
 30
0.0
 10
-0.03786
 20
0.6081700000000001
 30
0.0
 10
-0.03786
 20
0.6081700000000001
 30
0.0
 10
-0.07796
 20
0.6081700000000001
 30
0.0
 10
-0.10469
 20
0.59035
 30
0.0
 10
-0.12697
 20
0.5769800000000001
 30
0.0
  0
SPLINE
  5
35
330
1F
100
AcDbEntity
  8
Plan 1
100
AcDbSpline
210
0.0
220
0.0
230
1.0
 70
    11
 71
     3
 72
    32
 73
    28
 74
     0
 42
0.0000000001
 43
0.0000000001
 40
0.0
 40
0.0
 40
0.0
 40
0.0
 40
0.1428571428571429
 40
0.1428571428571429
 40
0.1428571428571429
 40
0.1428571428571429
 40
0.2857142857142857
 40
0.2857142857142857
 40
0.2857142857142857
 40
0.2857142857142857
 40
0.4285714285714286
 40
0.4285714285714286
 40
0.4285714285714286
 40
0.4285714285714286
 40
0.5714285714285714
 40
0.5714285714285714
 40
0.5714285714285714
 40
0.5714285714285714
 40
0.7142857142857142
 40
0.7142857142857142
 40
0.7142857142857142
 40
0.7142857142857142
 40
0.857142857142857
 40
0.857142857142857
 40
0.857142857142857
 40
0.857142857142857
 40
1.0
 40
1.0
 40
1.0
 40
1.0
 10
-0.5636000000000001
 20
0.7061900000000001
 30
0.0
 10
-0.5636000000000001
 20
0.6037100000000001
 30
0.0
 10
-0.49677
 20
0.6438100000000001
 30
0.0
 10
-0.49231
 20
0.5769800000000001
 30
0.0
 10
-0.49231
 20
0.5769800000000001
 30
0.0
 10
-0.48786
 20
0.5324300000000001
 30
0.0
 10
-0.54132
 20
0.42104
 30
0.0
 10
-0.46113
 20
0.47451
 30
0.0
 10
-0.46113
 20
0.47451
 30
0.0
 10
-0.4165700000000001
 20
0.50124
 30
0.0
 10
-0.3943
 20
0.52351
 30
0.0
 10
-0.3319200000000001
 20
0.54134
 30
0.0
 10
-0.3319200000000001
 20
0.54134
 30
0.0
 10
-0.22499
 20
0.57252
 30
0.0
 10
-0.27845
 20
0.54579
 30
0.0
 10
-0.27845
 20
0.6616300000000001
 30
0.0
 10
-0.27845
 20
0.6616300000000001
 30
0.0
 10
-0.32746
 20
0.6616300000000001
 30
0.0
 10
-0.40766
 20
0.6126200000000001
 30
0.0
 10
-0.40766
 20
0.67054
 30
0.0
 10
-0.40766
 20
0.67054
 30
0.0
 10
-0.40766
 20
0.67054
 30
0.0
 10
-0.30519
 20
0.7106400000000001
 30
0.0
 10
-0.30519
 20
0.7106400000000001
 30
0.0
 10
-0.30519
 20
0.7106400000000001
 30
0.0
 10
-0.30964
 20
0.92005
 30
0.0
 10
-0.50568
 20
0.71955
 30
0.0
 10
-0.5636000000000001
 20
0.7061900000000001
 30
0.0
  0
SPLINE
  5
36
330
1F
100
AcDbEntity
  8
Plan 1
100
AcDbSpline
210
0.0
220
0.0
230
1.0
 70
    11
 71
     3
 72
    64
 73
    60
 74
     0
 42
0.0000000001
 43
0.0000000001
 40
0.0
 40
0.0
 40
0.0
 40
0.0
 40
0.0666666666666667
 40
0.0666666666666667
 40
0.0666666666666667
 40
0.0666666666666667
 40
0.1333333333333333
 40
0.1333333333333333
 40
0.1333333333333333
 40
0.1333333333333333
 40
0.2
 40
0.2
 40
0.2
 40
0.2
 40
0.2666666666666667
 40
0.2666666666666667
 40
0.2666666666666667
 40
0.2666666666666667
 40
0.3333333333333333
 40
0.3333333333333333
 40
0.3333333333333333
 40
0.3333333333333333
 40
0.4
 40
0.4
 40
0.4
 40
0.4
 40
0.4666666666666666
 40
0.4666666666666666
 40
0.4666666666666666
 40
0.4666666666666666
 40
0.5333333333333333
 40
0.5333333333333333
 40
0.5333333333333333
 40
0.5333333333333333
 40
0.6
 40
0.6
 40
0.6
 40
0.6
 40
0.6666666666666666
 40
0.6666666666666666
 40
0.6666666666666666
 40
0.6666666666666666
 40
0.7333333333333333
 40
0.7333333333333333
 40
0.7333333333333333
 40
0.7333333333333333
 40
0.7999999999999999
 40
0.7999999999999999
 40
0.7999999999999999
 40
0.7999999999999999
 40
0.8666666666666666
 40
0.8666666666666666
 40
0.8666666666666666
 40
0.8666666666666666
 40
0.9333333333333332
 40
0.9333333333333332
 40
0.9333333333333332
 40
0.9333333333333332
 40
1.0
 40
1.0
 40
1.0
 40
1.0
 10
-0.26954
 20
0.8398500000000001
 30
0.0
 10
-0.26954
 20
0.8398500000000001
 30
0.0
 10
-0.26954
 20
0.8264900000000001
 30
0.0
 10
-0.26954
 20
0.8264900000000001
 30
0.0
 10
-0.26954
 20
0.8264900000000001
 30
0.0
 10
-0.26954
 20
0.81757
 30
0.0
 10
-0.25618
 20
0.7507400000000001
 30
0.0
 10
-0.25618
 20
0.73292
 30
0.0
 10
-0.25618
 20
0.73292
 30
0.0
 10
-0.25172
 20
0.7017300000000001
 30
0.0
 10
-0.25172
 20
0.6571800000000001
 30
0.0
 10
-0.24727
 20
0.6259900000000001
 30
0.0
 10
-0.24727
 20
0.6259900000000001
 30
0.0
 10
-0.24281
 20
0.58589
 30
0.0
 10
-0.21162
 20
0.48342
 30
0.0
 10
-0.19826
 20
0.45223
 30
0.0
 10
-0.19826
 20
0.45223
 30
0.0
 10
-0.19826
 20
0.45223
 30
0.0
 10
-0.16707
 20
0.47005
 30
0.0
 10
-0.16707
 20
0.47005
 30
0.0
 10
-0.16707
 20
0.47005
 30
0.0
 10
-0.16707
 20
0.47005
 30
0.0
 10
-0.17152
 20
0.47451
 30
0.0
 10
-0.17152
 20
0.47451
 30
0.0
 10
-0.17152
 20
0.47451
 30
0.0
 10
-0.17152
 20
0.47451
 30
0.0
 10
-0.18935
 20
0.58589
 30
0.0
 10
-0.18935
 20
0.58589
 30
0.0
 10
-0.18935
 20
0.58589
 30
0.0
 10
-0.18935
 20
0.58589
 30
0.0
 10
-0.15816
 20
0.59035
 30
0.0
 10
-0.15816
 20
0.59035
 30
0.0
 10
-0.15816
 20
0.59035
 30
0.0
 10
-0.15816
 20
0.59035
 30
0.0
 10
-0.15816
 20
0.59926
 30
0.0
 10
-0.15816
 20
0.59926
 30
0.0
 10
-0.15816
 20
0.59926
 30
0.0
 10
-0.15816
 20
0.59926
 30
0.0
 10
-0.21162
 20
0.6126200000000001
 30
0.0
 10
-0.21162
 20
0.6126200000000001
 30
0.0
 10
-0.21162
 20
0.6126200000000001
 30
0.0
 10
-0.21162
 20
0.6126200000000001
 30
0.0
 10
-0.22944
 20
0.76856
 30
0.0
 10
-0.22944
 20
0.76856
 30
0.0
 10
-0.22944
 20
0.76856
 30
0.0
 10
-0.22944
 20
0.76856
 30
0.0
 10
-0.22944
 20
0.7997500000000001
 30
0.0
 10
-0.22944
 20
0.7997500000000001
 30
0.0
 10
-0.22944
 20
0.7997500000000001
 30
0.0
 10
-0.22944
 20
0.81757
 30
0.0
 10
-0.22053
 20
0.8131200000000001
 30
0.0
 10
-0.22053
 20
0.81757
 30
0.0
 10
-0.22053
 20
0.81757
 30
0.0
 10
-0.22053
 20
0.8354
 30
0.0
 10
-0.22944
 20
0.8443100000000001
 30
0.0
 10
-0.22944
 20
0.8755000000000001
 30
0.0
 10
-0.22944
 20
0.8755000000000001
 30
0.0
 10
-0.24281
 20
0.8755000000000001
 30
0.0
 10
-0.26954
 20
0.85767
 30
0.0
 10
-0.26954
 20
0.8398500000000001
 30
0.0
  0
SPLINE
  5
37
330
1F
100
AcDbEntity
  8
Plan 1
100
AcDbSpline
210
0.0
220
0.0
230
1.0
 70
    11
 71
     3
 72
    52
 73
    48
 74
     0
 42
0.0000000001
 43
0.0000000001
 40
0.0
 40
0.0
 40
0.0
 40
0.0
 40
0.0833333333333333
 40
0.0833333333333333
 40
0.0833333333333333
 40
0.0833333333333333
 40
0.1666666666666667
 40
0.1666666666666667
 40
0.1666666666666667
 40
0.1666666666666667
 40
0.25
 40
0.25
 40
0.25
 40
0.25
 40
0.3333333333333333
 40
0.3333333333333333
 40
0.3333333333333333
 40
0.3333333333333333
 40
0.4166666666666666
 40
0.4166666666666666
 40
0.4166666666666666
 40
0.4166666666666666
 40
0.4999999999999999
 40
0.4999999999999999
 40
0.4999999999999999
 40
0.4999999999999999
 40
0.5833333333333333
 40
0.5833333333333333
 40
0.5833333333333333
 40
0.5833333333333333
 40
0.6666666666666666
 40
0.6666666666666666
 40
0.6666666666666666
 40
0.6666666666666666
 40
0.75
 40
0.75
 40
0.75
 40
0.75
 40
0.8333333333333334
 40
0.8333333333333334
 40
0.8333333333333334
 40
0.8333333333333334
 40
0.9166666666666667
 40
0.9166666666666667
 40
0.9166666666666667
 40
0.9166666666666667
 40
1.0
 40
1.0
 40
1.0
 40
1.0
 10
0.19828
 20
0.52351
 30
0.0
 10
0.19828
 20
0.52351
 30
0.0
 10
0.19382
 20
0.43886
 30
0.0
 10
0.19382
 20
0.43886
 30
0.0
 10
0.19382
 20
0.43886
 30
0.0
 10
0.23392
 20
0.4299500000000001
 30
0.0
 10
0.22501
 20
0.47005
 30
0.0
 10
0.2562
 20
0.47005
 30
0.0
 10
0.2562
 20
0.47005
 30
0.0
 10
0.2562
 20
0.47005
 30
0.0
 10
0.26956
 20
0.47005
 30
0.0
 10
0.26956
 20
0.47005
 30
0.0
 10
0.26956
 20
0.47005
 30
0.0
 10
0.26956
 20
0.47005
 30
0.0
 10
0.26956
 20
0.45668
 30
0.0
 10
0.26956
 20
0.45668
 30
0.0
 10
0.26956
 20
0.45668
 30
0.0
 10
0.26956
 20
0.43886
 30
0.0
 10
0.2606500000000001
 20
0.45668
 30
0.0
 10
0.2606500000000001
 20
0.4255
 30
0.0
 10
0.2606500000000001
 20
0.4255
 30
0.0
 10
0.2606500000000001
 20
0.4255
 30
0.0
 10
0.28738
 20
0.4165800000000001
 30
0.0
 10
0.28738
 20
0.4165800000000001
 30
0.0
 10
0.28738
 20
0.4165800000000001
 30
0.0
 10
0.29629
 20
0.43886
 30
0.0
 10
0.30521
 20
0.47005
 30
0.0
 10
0.33194
 20
0.4789600000000001
 30
0.0
 10
0.33194
 20
0.4789600000000001
 30
0.0
 10
0.33194
 20
0.4789600000000001
 30
0.0
 10
0.33194
 20
0.43886
 30
0.0
 10
0.33194
 20
0.43886
 30
0.0
 10
0.33194
 20
0.43886
 30
0.0
 10
0.33194
 20
0.43886
 30
0.0
 10
0.33639
 20
0.43441
 30
0.0
 10
0.33639
 20
0.43441
 30
0.0
 10
0.33639
 20
0.43441
 30
0.0
 10
0.33639
 20
0.43441
 30
0.0
 10
0.35422
 20
0.5146000000000001
 30
0.0
 10
0.35422
 20
0.5146000000000001
 30
0.0
 10
0.35422
 20
0.5146000000000001
 30
0.0
 10
0.32303
 20
0.5279700000000001
 30
0.0
 10
0.29184
 20
0.53688
 30
0.0
 10
0.24729
 20
0.53688
 30
0.0
 10
0.24729
 20
0.53688
 30
0.0
 10
0.22055
 20
0.53688
 30
0.0
 10
0.21164
 20
0.5324300000000001
 30
0.0
 10
0.19828
 20
0.52351
 30
0.0
  0
SPLINE
  5
38
330
1F
100
AcDbEntity
  8
Plan 1
100
AcDbSpline
210
0.0
220
0.0
230
1.0
 70
    11
 71
     3
 72
    24
 73
    20
 74
     0
 42
0.0000000001
 43
0.0000000001
 40
0.0
 40
0.0
 40
0.0
 40
0.0
 40
0.2
 40
0.2
 40
0.2
 40
0.2
 40
0.4
 40
0.4
 40
0.4
 40
0.4
 40
0.6000000000000001
 40
0.6000000000000001
 40
0.6000000000000001
 40
0.6000000000000001
 40
0.8
 40
0.8
 40
0.8
 40
0.8
 40
1.0
 40
1.0
 40
1.0
 40
1.0
 10
0.42105
 20
0.51015
 30
0.0
 10
0.42105
 20
0.51015
 30
0.0
 10
0.5324300000000001
 20
0.3943100000000001
 30
0.0
 10
0.5324300000000001
 20
0.3943100000000001
 30
0.0
 10
0.5324300000000001
 20
0.3943100000000001
 30
0.0
 10
0.5458000000000001
 20
0.4611400000000001
 30
0.0
 10
0.5948100000000001
 20
0.57252
 30
0.0
 10
0.5948100000000001
 20
0.6571800000000001
 30
0.0
 10
0.5948100000000001
 20
0.6571800000000001
 30
0.0
 10
0.5948100000000001
 20
0.6571800000000001
 30
0.0
 10
0.5948100000000001
 20
0.7106400000000001
 30
0.0
 10
0.5948100000000001
 20
0.7106400000000001
 30
0.0
 10
0.5948100000000001
 20
0.7106400000000001
 30
0.0
 10
0.5948100000000001
 20
0.7596500000000001
 30
0.0
 10
0.52798
 20
0.6170800000000001
 30
0.0
 10
0.5235200000000001
 20
0.6081700000000001
 30
0.0
 10
0.5235200000000001
 20
0.6081700000000001
 30
0.0
 10
0.4923300000000001
 20
0.5680700000000001
 30
0.0
 10
0.4611500000000001
 20
0.53688
 30
0.0
 10
0.42105
 20
0.51015
 30
0.0
  0
SPLINE
  5
39
330
1F
100
AcDbEntity
  8
Plan 1
100
AcDbSpline
210
0.0
220
0.0
230
1.0
 70
    11
 71
     3
 72
    28
 73
    24
 74
     0
 42
0.0000000001
 43
0.0000000001
 40
0.0
 40
0.0
 40
0.0
 40
0.0
 40
0.1666666666666667
 40
0.1666666666666667
 40
0.1666666666666667
 40
0.1666666666666667
 40
0.3333333333333333
 40
0.3333333333333333
 40
0.3333333333333333
 40
0.3333333333333333
 40
0.5
 40
0.5
 40
0.5
 40
0.5
 40
0.6666666666666666
 40
0.6666666666666666
 40
0.6666666666666666
 40
0.6666666666666666
 40
0.8333333333333333
 40
0.8333333333333333
 40
0.8333333333333333
 40
0.8333333333333333
 40
1.0
 40
1.0
 40
1.0
 40
1.0
 10
0.8264900000000001
 20
0.45223
 30
0.0
 10
0.8264900000000001
 20
0.45223
 30
0.0
 10
0.8264900000000001
 20
0.43886
 30
0.0
 10
0.8264900000000001
 20
0.43886
 30
0.0
 10
0.8264900000000001
 20
0.43886
 30
0.0
 10
0.8264900000000001
 20
0.4165800000000001
 30
0.0
 10
0.8576800000000001
 20
0.4299500000000001
 30
0.0
 10
0.8665900000000001
 20
0.3943100000000001
 30
0.0
 10
0.8665900000000001
 20
0.3943100000000001
 30
0.0
 10
0.8755000000000001
 20
0.3987600000000001
 30
0.0
 10
0.8755000000000001
 20
0.3943100000000001
 30
0.0
 10
0.8755000000000001
 20
0.40767
 30
0.0
 10
0.8755000000000001
 20
0.40767
 30
0.0
 10
0.8755000000000001
 20
0.40767
 30
0.0
 10
0.8755000000000001
 20
0.4433200000000001
 30
0.0
 10
0.8755000000000001
 20
0.4433200000000001
 30
0.0
 10
0.8755000000000001
 20
0.4433200000000001
 30
0.0
 10
0.8755000000000001
 20
0.47005
 30
0.0
 10
0.8621300000000001
 20
0.5056900000000001
 30
0.0
 10
0.8354
 20
0.5146000000000001
 30
0.0
 10
0.8354
 20
0.5146000000000001
 30
0.0
 10
0.8354
 20
0.5146000000000001
 30
0.0
 10
0.8264900000000001
 20
0.45223
 30
0.0
 10
0.8264900000000001
 20
0.45223
 30
0.0
  0
SPLINE
  5
3A
330
1F
100
AcDbEntity
  8
Plan 1
100
AcDbSpline
210
0.0
220
0.0
230
1.0
 70
    11
 71
     3
 72
    20
 73
    16
 74
     0
 42
0.0000000001
 43
0.0000000001
 40
0.0
 40
0.0
 40
0.0
 40
0.0
 40
0.25
 40
0.25
 40
0.25
 40
0.25
 40
0.5
 40
0.5
 40
0.5
 40
0.5
 40
0.75
 40
0.75
 40
0.75
 40
0.75
 40
1.0
 40
1.0
 40
1.0
 40
1.0
 10
-0.42548
 20
0.36757
 30
0.0
 10
-0.40321
 20
0.36757
 30
0.0
 10
-0.23836
 20
0.42104
 30
0.0
 10
-0.23836
 20
0.4477700000000001
 30
0.0
 10
-0.23836
 20
0.4477700000000001
 30
0.0
 10
-0.23836
 20
0.4477700000000001
 30
0.0
 10
-0.23836
 20
0.47005
 30
0.0
 10
-0.23836
 20
0.47005
 30
0.0
 10
-0.23836
 20
0.47005
 30
0.0
 10
-0.23836
 20
0.5547000000000001
 30
0.0
 10
-0.34083
 20
0.4967800000000001
 30
0.0
 10
-0.37647
 20
0.48342
 30
0.0
 10
-0.37647
 20
0.48342
 30
0.0
 10
-0.42994
 20
0.45668
 30
0.0
 10
-0.49677
 20
0.4299500000000001
 30
0.0
 10
-0.42548
 20
0.36757
 30
0.0
  0
SPLINE
  5
3B
330
1F
100
AcDbEntity
  8
Plan 1
100
AcDbSpline
210
0.0
220
0.0
230
1.0
 70
    11
 71
     3
 72
    24
 73
    20
 74
     0
 42
0.0000000001
 43
0.0000000001
 40
0.0
 40
0.0
 40
0.0
 40
0.0
 40
0.2
 40
0.2
 40
0.2
 40
0.2
 40
0.4
 40
0.4
 40
0.4
 40
0.4
 40
0.6000000000000001
 40
0.6000000000000001
 40
0.6000000000000001
 40
0.6000000000000001
 40
0.8
 40
0.8
 40
0.8
 40
0.8
 40
1.0
 40
1.0
 40
1.0
 40
1.0
 10
-0.87548
 20
0.4433200000000001
 30
0.0
 10
-0.87548
 20
0.40322
 30
0.0
 10
-0.8665700000000001
 20
0.3809400000000001
 30
0.0
 10
-0.86211
 20
0.35421
 30
0.0
 10
-0.86211
 20
0.35421
 30
0.0
 10
-0.86211
 20
0.35421
 30
0.0
 10
-0.8532000000000001
 20
0.35421
 30
0.0
 10
-0.8532000000000001
 20
0.35421
 30
0.0
 10
-0.8532000000000001
 20
0.35421
 30
0.0
 10
-0.8532000000000001
 20
0.38985
 30
0.0
 10
-0.8086500000000001
 20
0.52351
 30
0.0
 10
-0.7952800000000001
 20
0.5636100000000001
 30
0.0
 10
-0.7952800000000001
 20
0.5636100000000001
 30
0.0
 10
-0.7596400000000001
 20
0.6527200000000001
 30
0.0
 10
-0.7195400000000001
 20
0.6527200000000001
 30
0.0
 10
-0.6839000000000001
 20
0.72401
 30
0.0
 10
-0.6839000000000001
 20
0.72401
 30
0.0
 10
-0.7641000000000001
 20
0.71955
 30
0.0
 10
-0.87548
 20
0.54579
 30
0.0
 10
-0.87548
 20
0.4433200000000001
 30
0.0
  0
SPLINE
  5
3C
330
1F
100
AcDbEntity
  8
Plan 1
100
AcDbSpline
210
0.0
220
0.0
230
1.0
 70
    11
 71
     3
 72
    32
 73
    28
 74
     0
 42
0.0000000001
 43
0.0000000001
 40
0.0
 40
0.0
 40
0.0
 40
0.0
 40
0.1428571428571429
 40
0.1428571428571429
 40
0.1428571428571429
 40
0.1428571428571429
 40
0.2857142857142857
 40
0.2857142857142857
 40
0.2857142857142857
 40
0.2857142857142857
 40
0.4285714285714286
 40
0.4285714285714286
 40
0.4285714285714286
 40
0.4285714285714286
 40
0.5714285714285714
 40
0.5714285714285714
 40
0.5714285714285714
 40
0.5714285714285714
 40
0.7142857142857142
 40
0.7142857142857142
 40
0.7142857142857142
 40
0.7142857142857142
 40
0.857142857142857
 40
0.857142857142857
 40
0.857142857142857
 40
0.857142857142857
 40
1.0
 40
1.0
 40
1.0
 40
1.0
 10
0.5458000000000001
 20
0.3453000000000001
 30
0.0
 10
0.5725300000000001
 20
0.33639
 30
0.0
 10
0.61263
 20
0.28738
 30
0.0
 10
0.6304500000000001
 20
0.2651
 30
0.0
 10
0.6304500000000001
 20
0.2651
 30
0.0
 10
0.66164
 20
0.21163
 30
0.0
 10
0.65273
 20
0.17153
 30
0.0
 10
0.6705500000000001
 20
0.13589
 30
0.0
 10
0.6705500000000001
 20
0.13589
 30
0.0
 10
0.6928300000000001
 20
0.1448
 30
0.0
 10
0.7596600000000001
 20
0.28738
 30
0.0
 10
0.77302
 20
0.32302
 30
0.0
 10
0.77302
 20
0.32302
 30
0.0
 10
0.8042100000000001
 20
0.40322
 30
0.0
 10
0.79976
 20
0.48342
 30
0.0
 10
0.7552000000000001
 20
0.5547000000000001
 30
0.0
 10
0.7552000000000001
 20
0.5547000000000001
 30
0.0
 10
0.73738
 20
0.5814400000000001
 30
0.0
 10
0.7151000000000001
 20
0.6170800000000001
 30
0.0
 10
0.6839200000000001
 20
0.6304500000000001
 30
0.0
 10
0.6839200000000001
 20
0.6304500000000001
 30
0.0
 10
0.6170800000000001
 20
0.6660900000000001
 30
0.0
 10
0.6215400000000001
 20
0.6259900000000001
 30
0.0
 10
0.61263
 20
0.5769800000000001
 30
0.0
 10
0.61263
 20
0.5769800000000001
 30
0.0
 10
0.60372
 20
0.5279700000000001
 30
0.0
 10
0.5458000000000001
 20
0.3453000000000001
 30
0.0
 10
0.5458000000000001
 20
0.3453000000000001
 30
0.0
  0
SPLINE
  5
3D
330
1F
100
AcDbEntity
  8
Plan 1
100
AcDbSpline
210
0.0
220
0.0
230
1.0
 70
    11
 71
     3
 72
    44
 73
    40
 74
     0
 42
0.0000000001
 43
0.0000000001
 40
0.0
 40
0.0
 40
0.0
 40
0.0
 40
0.1
 40
0.1
 40
0.1
 40
0.1
 40
0.2
 40
0.2
 40
0.2
 40
0.2
 40
0.3
 40
0.3
 40
0.3
 40
0.3
 40
0.4
 40
0.4
 40
0.4
 40
0.4
 40
0.5
 40
0.5
 40
0.5
 40
0.5
 40
0.6
 40
0.6
 40
0.6
 40
0.6
 40
0.7
 40
0.7
 40
0.7
 40
0.7
 40
0.7999999999999999
 40
0.7999999999999999
 40
0.7999999999999999
 40
0.7999999999999999
 40
0.8999999999999999
 40
0.8999999999999999
 40
0.8999999999999999
 40
0.8999999999999999
 40
1.0
 40
1.0
 40
1.0
 40
1.0
 10
0.11362
 20
0.06906
 30
0.0
 10
0.11362
 20
0.05569
 30
0.0
 10
0.11362
 20
0.06015
 30
0.0
 10
0.12253
 20
0.05569
 30
0.0
 10
0.12253
 20
0.05569
 30
0.0
 10
0.13144
 20
0.09579
 30
0.0
 10
0.15818
 20
0.1448
 30
0.0
 10
0.17154
 20
0.1849
 30
0.0
 10
0.17154
 20
0.1849
 30
0.0
 10
0.18491
 20
0.225
 30
0.0
 10
0.19382
 20
0.21163
 30
0.0
 10
0.20719
 20
0.23837
 30
0.0
 10
0.20719
 20
0.23837
 30
0.0
 10
0.2161
 20
0.2651
 30
0.0
 10
0.2161
 20
0.28292
 30
0.0
 10
0.22501
 20
0.31411
 30
0.0
 10
0.22501
 20
0.31411
 30
0.0
 10
0.22501
 20
0.31411
 30
0.0
 10
0.23837
 20
0.31856
 30
0.0
 10
0.23837
 20
0.31856
 30
0.0
 10
0.23837
 20
0.31856
 30
0.0
 10
0.23837
 20
0.31856
 30
0.0
 10
0.25174
 20
0.38985
 30
0.0
 10
0.25174
 20
0.38985
 30
0.0
 10
0.25174
 20
0.38985
 30
0.0
 10
0.25174
 20
0.38985
 30
0.0
 10
0.25174
 20
0.3987600000000001
 30
0.0
 10
0.25174
 20
0.3987600000000001
 30
0.0
 10
0.25174
 20
0.3987600000000001
 30
0.0
 10
0.25174
 20
0.4121300000000001
 30
0.0
 10
0.20273
 20
0.4433200000000001
 30
0.0
 10
0.18936
 20
0.3809400000000001
 30
0.0
 10
0.18936
 20
0.3809400000000001
 30
0.0
 10
0.18045
 20
0.34084
 30
0.0
 10
0.176
 20
0.30965
 30
0.0
 10
0.16709
 20
0.27401
 30
0.0
 10
0.16709
 20
0.27401
 30
0.0
 10
0.15372
 20
0.22946
 30
0.0
 10
0.11362
 20
0.11361
 30
0.0
 10
0.11362
 20
0.06906
 30
0.0
  0
SPLINE
  5
3E
330
1F
100
AcDbEntity
  8
Plan 1
100
AcDbSpline
210
0.0
220
0.0
230
1.0
 70
    11
 71
     3
 72
    52
 73
    48
 74
     0
 42
0.0000000001
 43
0.0000000001
 40
0.0
 40
0.0
 40
0.0
 40
0.0
 40
0.0833333333333333
 40
0.0833333333333333
 40
0.0833333333333333
 40
0.0833333333333333
 40
0.1666666666666667
 40
0.1666666666666667
 40
0.1666666666666667
 40
0.1666666666666667
 40
0.25
 40
0.25
 40
0.25
 40
0.25
 40
0.3333333333333333
 40
0.3333333333333333
 40
0.3333333333333333
 40
0.3333333333333333
 40
0.4166666666666666
 40
0.4166666666666666
 40
0.4166666666666666
 40
0.4166666666666666
 40
0.4999999999999999
 40
0.4999999999999999
 40
0.4999999999999999
 40
0.4999999999999999
 40
0.5833333333333333
 40
0.5833333333333333
 40
0.5833333333333333
 40
0.5833333333333333
 40
0.6666666666666666
 40
0.6666666666666666
 40
0.6666666666666666
 40
0.6666666666666666
 40
0.75
 40
0.75
 40
0.75
 40
0.75
 40
0.8333333333333334
 40
0.8333333333333334
 40
0.8333333333333334
 40
0.8333333333333334
 40
0.9166666666666667
 40
0.9166666666666667
 40
0.9166666666666667
 40
0.9166666666666667
 40
1.0
 40
1.0
 40
1.0
 40
1.0
 10
-0.67944
 20
0.04233
 30
0.0
 10
-0.67944
 20
0.0646
 30
0.0
 10
-0.68835
 20
0.06015
 30
0.0
 10
-0.68835
 20
0.07797
 30
0.0
 10
-0.68835
 20
0.07797
 30
0.0
 10
-0.68835
 20
0.07797
 30
0.0
 10
-0.68835
 20
0.15817
 30
0.0
 10
-0.68835
 20
0.15817
 30
0.0
 10
-0.68835
 20
0.15817
 30
0.0
 10
-0.68835
 20
0.21609
 30
0.0
 10
-0.6259800000000001
 20
0.25173
 30
0.0
 10
-0.6304300000000001
 20
0.29629
 30
0.0
 10
-0.6304300000000001
 20
0.29629
 30
0.0
 10
-0.6304300000000001
 20
0.29629
 30
0.0
 10
-0.63934
 20
0.30074
 30
0.0
 10
-0.63934
 20
0.30074
 30
0.0
 10
-0.63934
 20
0.30074
 30
0.0
 10
-0.63934
 20
0.30074
 30
0.0
 10
-0.7106300000000001
 20
0.1849
 30
0.0
 10
-0.7106300000000001
 20
0.1849
 30
0.0
 10
-0.7106300000000001
 20
0.1849
 30
0.0
 10
-0.7106300000000001
 20
0.1849
 30
0.0
 10
-0.7061700000000001
 20
0.18045
 30
0.0
 10
-0.7061700000000001
 20
0.18045
 30
0.0
 10
-0.7061700000000001
 20
0.18045
 30
0.0
 10
-0.7061700000000001
 20
0.18045
 30
0.0
 10
-0.7195400000000001
 20
0.18045
 30
0.0
 10
-0.7195400000000001
 20
0.18045
 30
0.0
 10
-0.7195400000000001
 20
0.18045
 30
0.0
 10
-0.7329100000000001
 20
0.23837
 30
0.0
 10
-0.8353800000000001
 20
0.28292
 30
0.0
 10
-0.78637
 20
0.42104
 30
0.0
 10
-0.78637
 20
0.42104
 30
0.0
 10
-0.7730100000000001
 20
0.4655900000000001
 30
0.0
 10
-0.75073
 20
0.48787
 30
0.0
 10
-0.7195400000000001
 20
0.52351
 30
0.0
 10
-0.7195400000000001
 20
0.52351
 30
0.0
 10
-0.65717
 20
0.6081700000000001
 30
0.0
 10
-0.7819200000000001
 20
0.4967800000000001
 30
0.0
 10
-0.7819200000000001
 20
0.4967800000000001
 30
0.0
 10
-0.7819200000000001
 20
0.4967800000000001
 30
0.0
 10
-0.8353800000000001
 20
0.4611400000000001
 30
0.0
 10
-0.8532000000000001
 20
0.30965
 30
0.0
 10
-0.8220200000000001
 20
0.23837
 30
0.0
 10
-0.8220200000000001
 20
0.23837
 30
0.0
 10
-0.8041900000000001
 20
0.18936
 30
0.0
 10
-0.7240000000000001
 20
0.04678
 30
0.0
 10
-0.67944
 20
0.04233
 30
0.0
  0
SPLINE
  5
3F
330
1F
100
AcDbEntity
  8
Plan 1
100
AcDbSpline
210
0.0
220
0.0
230
1.0
 70
    11
 71
     3
 72
    20
 73
    16
 74
     0
 42
0.0000000001
 43
0.0000000001
 40
0.0
 40
0.0
 40
0.0
 40
0.0
 40
0.25
 40
0.25
 40
0.25
 40
0.25
 40
0.5
 40
0.5
 40
0.5
 40
0.5
 40
0.75
 40
0.75
 40
0.75
 40
0.75
 40
1.0
 40
1.0
 40
1.0
 40
1.0
 10
-0.12697
 20
-0.0245
 30
0.0
 10
-0.08242
 20
-0.01114
 30
0.0
 10
-0.13143
 20
0.1448
 30
0.0
 10
-0.14034
 20
0.20272
 30
0.0
 10
-0.14034
 20
0.20272
 30
0.0
 10
-0.14479
 20
0.23837
 30
0.0
 10
-0.16707
 20
0.4433200000000001
 30
0.0
 10
-0.18935
 20
0.43886
 30
0.0
 10
-0.18935
 20
0.43886
 30
0.0
 10
-0.24727
 20
0.4255
 30
0.0
 10
-0.18935
 20
0.2651
 30
0.0
 10
-0.18044
 20
0.21609
 30
0.0
 10
-0.18044
 20
0.21609
 30
0.0
 10
-0.17152
 20
0.16262
 30
0.0
 10
-0.14479
 20
0.01114
 30
0.0
 10
-0.12697
 20
-0.0245
 30
0.0
  0
SPLINE
  5
40
330
1F
100
AcDbEntity
  8
Plan 1
100
AcDbSpline
210
0.0
220
0.0
230
1.0
 70
    11
 71
     3
 72
    56
 73
    52
 74
     0
 42
0.0000000001
 43
0.0000000001
 40
0.0
 40
0.0
 40
0.0
 40
0.0
 40
0.0769230769230769
 40
0.0769230769230769
 40
0.0769230769230769
 40
0.0769230769230769
 40
0.1538461538461539
 40
0.1538461538461539
 40
0.1538461538461539
 40
0.1538461538461539
 40
0.2307692307692308
 40
0.2307692307692308
 40
0.2307692307692308
 40
0.2307692307692308
 40
0.3076923076923077
 40
0.3076923076923077
 40
0.3076923076923077
 40
0.3076923076923077
 40
0.3846153846153846
 40
0.3846153846153846
 40
0.3846153846153846
 40
0.3846153846153846
 40
0.4615384615384616
 40
0.4615384615384616
 40
0.4615384615384616
 40
0.4615384615384616
 40
0.5384615384615386
 40
0.5384615384615386
 40
0.5384615384615386
 40
0.5384615384615386
 40
0.6153846153846154
 40
0.6153846153846154
 40
0.6153846153846154
 40
0.6153846153846154
 40
0.6923076923076923
 40
0.6923076923076923
 40
0.6923076923076923
 40
0.6923076923076923
 40
0.7692307692307692
 40
0.7692307692307692
 40
0.7692307692307692
 40
0.7692307692307692
 40
0.846153846153846
 40
0.846153846153846
 40
0.846153846153846
 40
0.846153846153846
 40
0.9230769230769229
 40
0.9230769230769229
 40
0.9230769230769229
 40
0.9230769230769229
 40
1.0
 40
1.0
 40
1.0
 40
1.0
 10
-0.04677
 20
0.35866
 30
0.0
 10
-0.04677
 20
0.35866
 30
0.0
 10
-0.04677
 20
0.3274800000000001
 30
0.0
 10
-0.04677
 20
0.3274800000000001
 30
0.0
 10
-0.04677
 20
0.3274800000000001
 30
0.0
 10
-0.04677
 20
0.26064
 30
0.0
 10
-0.05123
 20
0.19827
 30
0.0
 10
-0.04677
 20
0.12698
 30
0.0
 10
-0.04677
 20
0.12698
 30
0.0
 10
-0.04232
 20
0.09579
 30
0.0
 10
-0.04232
 20
0.0646
 30
0.0
 10
-0.04232
 20
0.02451
 30
0.0
 10
-0.04232
 20
0.02451
 30
0.0
 10
-0.04677
 20
-0.03787
 30
0.0
 10
-0.04677
 20
-0.02896
 30
0.0
 10
0.0156
 20
-0.02896
 30
0.0
 10
0.0156
 20
-0.02896
 30
0.0
 10
0.0156
 20
-0.02896
 30
0.0
 10
-0.00222
 20
0.07351
 30
0.0
 10
-0.00222
 20
0.07351
 30
0.0
 10
-0.00222
 20
0.07351
 30
0.0
 10
-0.00222
 20
0.07351
 30
0.0
 10
-0.00222
 20
0.10025
 30
0.0
 10
-0.00222
 20
0.10025
 30
0.0
 10
-0.00222
 20
0.10025
 30
0.0
 10
-0.00222
 20
0.13144
 30
0.0
 10
0.0156
 20
0.1849
 30
0.0
 10
0.03342
 20
0.19827
 30
0.0
 10
0.03342
 20
0.19827
 30
0.0
 10
0.04234
 20
0.17599
 30
0.0
 10
0.02451
 20
0.1047
 30
0.0
 10
0.02451
 20
0.0646
 30
0.0
 10
0.02451
 20
0.0646
 30
0.0
 10
0.03342
 20
-0.04233
 30
0.0
 10
0.0156
 20
-0.00668
 30
0.0
 10
0.07798
 20
-0.03342
 30
0.0
 10
0.07798
 20
-0.03342
 30
0.0
 10
0.08243
 20
0.00223
 30
0.0
 10
0.1359
 20
0.34084
 30
0.0
 10
0.15372
 20
0.3987600000000001
 30
0.0
 10
0.15372
 20
0.3987600000000001
 30
0.0
 10
0.16263
 20
0.4611400000000001
 30
0.0
 10
0.14927
 20
0.4477700000000001
 30
0.0
 10
0.10026
 20
0.4611400000000001
 30
0.0
 10
0.10026
 20
0.4611400000000001
 30
0.0
 10
0.06016
 20
0.47451
 30
0.0
 10
0.04234
 20
0.47451
 30
0.0
 10
-0.01113
 20
0.4789600000000001
 30
0.0
 10
-0.01113
 20
0.4789600000000001
 30
0.0
 10
-0.16707
 20
0.48787
 30
0.0
 10
-0.04677
 20
0.4165800000000001
 30
0.0
 10
-0.04677
 20
0.35866
 30
0.0
  0
SPLINE
  5
41
330
1F
100
AcDbEntity
  8
Plan 1
100
AcDbSpline
210
0.0
220
0.0
230
1.0
 70
    11
 71
     3
 72
    32
 73
    28
 74
     0
 42
0.0000000001
 43
0.0000000001
 40
0.0
 40
0.0
 40
0.0
 40
0.0
 40
0.1428571428571429
 40
0.1428571428571429
 40
0.1428571428571429
 40
0.1428571428571429
 40
0.2857142857142857
 40
0.2857142857142857
 40
0.2857142857142857
 40
0.2857142857142857
 40
0.4285714285714286
 40
0.4285714285714286
 40
0.4285714285714286
 40
0.4285714285714286
 40
0.5714285714285714
 40
0.5714285714285714
 40
0.5714285714285714
 40
0.5714285714285714
 40
0.7142857142857142
 40
0.7142857142857142
 40
0.7142857142857142
 40
0.7142857142857142
 40
0.857142857142857
 40
0.857142857142857
 40
0.857142857142857
 40
0.857142857142857
 40
1.0
 40
1.0
 40
1.0
 40
1.0
 10
-0.22944
 20
-0.0646
 30
0.0
 10
-0.16261
 20
-0.05124
 30
0.0
 10
-0.1537
 20
-0.04233
 30
0.0
 10
-0.17152
 20
0.01114
 30
0.0
 10
-0.17152
 20
0.01114
 30
0.0
 10
-0.18489
 20
0.04678
 30
0.0
 10
-0.1938
 20
0.10025
 30
0.0
 10
-0.19826
 20
0.14926
 30
0.0
 10
-0.19826
 20
0.14926
 30
0.0
 10
-0.20717
 20
0.18936
 30
0.0
 10
-0.21608
 20
0.23837
 30
0.0
 10
-0.22499
 20
0.28292
 30
0.0
 10
-0.22499
 20
0.28292
 30
0.0
 10
-0.2339
 20
0.34975
 30
0.0
 10
-0.21608
 20
0.3854
 30
0.0
 10
-0.28737
 20
0.35421
 30
0.0
 10
-0.28737
 20
0.35421
 30
0.0
 10
-0.32301
 20
0.33639
 30
0.0
 10
-0.3809300000000001
 20
0.3274800000000001
 30
0.0
 10
-0.37202
 20
0.28292
 30
0.0
 10
-0.37202
 20
0.28292
 30
0.0
 10
-0.35865
 20
0.23391
 30
0.0
 10
-0.35865
 20
0.18936
 30
0.0
 10
-0.34529
 20
0.1448
 30
0.0
 10
-0.34529
 20
0.1448
 30
0.0
 10
-0.32746
 20
0.10025
 30
0.0
 10
-0.25618
 20
-0.03787
 30
0.0
 10
-0.22944
 20
-0.0646
 30
0.0
  0
SPLINE
  5
42
330
1F
100
AcDbEntity
  8
Plan 1
100
AcDbSpline
210
0.0
220
0.0
230
1.0
 70
    11
 71
     3
 72
    28
 73
    24
 74
     0
 42
0.0000000001
 43
0.0000000001
 40
0.0
 40
0.0
 40
0.0
 40
0.0
 40
0.1666666666666667
 40
0.1666666666666667
 40
0.1666666666666667
 40
0.1666666666666667
 40
0.3333333333333333
 40
0.3333333333333333
 40
0.3333333333333333
 40
0.3333333333333333
 40
0.5
 40
0.5
 40
0.5
 40
0.5
 40
0.6666666666666666
 40
0.6666666666666666
 40
0.6666666666666666
 40
0.6666666666666666
 40
0.8333333333333333
 40
0.8333333333333333
 40
0.8333333333333333
 40
0.8333333333333333
 40
1.0
 40
1.0
 40
1.0
 40
1.0
 10
-0.8442900000000001
 20
0.21163
 30
0.0
 10
-0.8442900000000001
 20
0.21163
 30
0.0
 10
-0.8442900000000001
 20
0.20718
 30
0.0
 10
-0.8442900000000001
 20
0.20718
 30
0.0
 10
-0.8442900000000001
 20
0.20718
 30
0.0
 10
-0.8442900000000001
 20
0.06906
 30
0.0
 10
-0.79083
 20
0.00223
 30
0.0
 10
-0.7641000000000001
 20
-0.08243
 30
0.0
 10
-0.7641000000000001
 20
-0.08243
 30
0.0
 10
-0.7641000000000001
 20
-0.08243
 30
0.0
 10
-0.7551800000000001
 20
-0.08243
 30
0.0
 10
-0.7551800000000001
 20
-0.08243
 30
0.0
 10
-0.7551800000000001
 20
-0.08243
 30
0.0
 10
-0.75073
 20
0.00668
 30
0.0
 10
-0.65271
 20
-0.0245
 30
0.0
 10
-0.7462700000000001
 20
0.07797
 30
0.0
 10
-0.7462700000000001
 20
0.07797
 30
0.0
 10
-0.7641000000000001
 20
0.10025
 30
0.0
 10
-0.7819200000000001
 20
0.12252
 30
0.0
 10
-0.7997400000000001
 20
0.14926
 30
0.0
 10
-0.7997400000000001
 20
0.14926
 30
0.0
 10
-0.8041900000000001
 20
0.15817
 30
0.0
 10
-0.8442900000000001
 20
0.25173
 30
0.0
 10
-0.8442900000000001
 20
0.21163
 30
0.0
  0
SPLINE
  5
43
330
1F
100
AcDbEntity
  8
Plan 1
100
AcDbSpline
210
0.0
220
0.0
230
1.0
 70
    11
 71
     3
 72
    40
 73
    36
 74
     0
 42
0.0000000001
 43
0.0000000001
 40
0.0
 40
0.0
 40
0.0
 40
0.0
 40
0.1111111111111111
 40
0.1111111111111111
 40
0.1111111111111111
 40
0.1111111111111111
 40
0.2222222222222222
 40
0.2222222222222222
 40
0.2222222222222222
 40
0.2222222222222222
 40
0.3333333333333333
 40
0.3333333333333333
 40
0.3333333333333333
 40
0.3333333333333333
 40
0.4444444444444444
 40
0.4444444444444444
 40
0.4444444444444444
 40
0.4444444444444444
 40
0.5555555555555556
 40
0.5555555555555556
 40
0.5555555555555556
 40
0.5555555555555556
 40
0.6666666666666667
 40
0.6666666666666667
 40
0.6666666666666667
 40
0.6666666666666667
 40
0.7777777777777779
 40
0.7777777777777779
 40
0.7777777777777779
 40
0.7777777777777779
 40
0.8888888888888891
 40
0.8888888888888891
 40
0.8888888888888891
 40
0.8888888888888891
 40
1.0
 40
1.0
 40
1.0
 40
1.0
 10
0.3096600000000001
 20
0.37203
 30
0.0
 10
0.3096600000000001
 20
0.31856
 30
0.0
 10
0.26956
 20
0.29629
 30
0.0
 10
0.26956
 20
0.18936
 30
0.0
 10
0.26956
 20
0.18936
 30
0.0
 10
0.22946
 20
0.19381
 30
0.0
 10
0.24729
 20
0.21163
 30
0.0
 10
0.22501
 20
0.1448
 30
0.0
 10
0.22501
 20
0.1448
 30
0.0
 10
0.21164
 20
0.10025
 30
0.0
 10
0.21164
 20
0.10025
 30
0.0
 10
0.18491
 20
0.1047
 30
0.0
 10
0.18491
 20
0.1047
 30
0.0
 10
0.17154
 20
0.1047
 30
0.0
 10
0.13144
 20
-0.00223
 30
0.0
 10
0.13144
 20
-0.03787
 30
0.0
 10
0.13144
 20
-0.03787
 30
0.0
 10
0.13144
 20
-0.03787
 30
0.0
 10
0.23392
 20
-0.08243
 30
0.0
 10
0.23392
 20
-0.08243
 30
0.0
 10
0.23392
 20
-0.08243
 30
0.0
 10
0.27847
 20
-0.05124
 30
0.0
 10
0.44778
 20
0.18045
 30
0.0
 10
0.44778
 20
0.24282
 30
0.0
 10
0.44778
 20
0.24282
 30
0.0
 10
0.44778
 20
0.24282
 30
0.0
 10
0.44778
 20
0.2651
 30
0.0
 10
0.44778
 20
0.2651
 30
0.0
 10
0.44778
 20
0.2651
 30
0.0
 10
0.44778
 20
0.33193
 30
0.0
 10
0.3854
 20
0.3854
 30
0.0
 10
0.3096600000000001
 20
0.3854
 30
0.0
 10
0.3096600000000001
 20
0.3854
 30
0.0
 10
0.3096600000000001
 20
0.3854
 30
0.0
 10
0.3096600000000001
 20
0.37203
 30
0.0
 10
0.3096600000000001
 20
0.37203
 30
0.0
  0
SPLINE
  5
44
330
1F
100
AcDbEntity
  8
Plan 1
100
AcDbSpline
210
0.0
220
0.0
230
1.0
 70
    11
 71
     3
 72
    96
 73
    92
 74
     0
 42
0.0000000001
 43
0.0000000001
 40
0.0
 40
0.0
 40
0.0
 40
0.0
 40
0.0434782608695652
 40
0.0434782608695652
 40
0.0434782608695652
 40
0.0434782608695652
 40
0.0869565217391304
 40
0.0869565217391304
 40
0.0869565217391304
 40
0.0869565217391304
 40
0.1304347826086957
 40
0.1304347826086957
 40
0.1304347826086957
 40
0.1304347826086957
 40
0.1739130434782609
 40
0.1739130434782609
 40
0.1739130434782609
 40
0.1739130434782609
 40
0.2173913043478261
 40
0.2173913043478261
 40
0.2173913043478261
 40
0.2173913043478261
 40
0.2608695652173913
 40
0.2608695652173913
 40
0.2608695652173913
 40
0.2608695652173913
 40
0.3043478260869565
 40
0.3043478260869565
 40
0.3043478260869565
 40
0.3043478260869565
 40
0.3478260869565217
 40
0.3478260869565217
 40
0.3478260869565217
 40
0.3478260869565217
 40
0.3913043478260869
 40
0.3913043478260869
 40
0.3913043478260869
 40
0.3913043478260869
 40
0.4347826086956521
 40
0.4347826086956521
 40
0.4347826086956521
 40
0.4347826086956521
 40
0.4782608695652173
 40
0.4782608695652173
 40
0.4782608695652173
 40
0.4782608695652173
 40
0.5217391304347825
 40
0.5217391304347825
 40
0.5217391304347825
 40
0.5217391304347825
 40
0.5652173913043477
 40
0.5652173913043477
 40
0.5652173913043477
 40
0.5652173913043477
 40
0.6086956521739129
 40
0.6086956521739129
 40
0.6086956521739129
 40
0.6086956521739129
 40
0.6521739130434781
 40
0.6521739130434781
 40
0.6521739130434781
 40
0.6521739130434781
 40
0.6956521739130432
 40
0.6956521739130432
 40
0.6956521739130432
 40
0.6956521739130432
 40
0.7391304347826084
 40
0.7391304347826084
 40
0.7391304347826084
 40
0.7391304347826084
 40
0.7826086956521736
 40
0.7826086956521736
 40
0.7826086956521736
 40
0.7826086956521736
 40
0.8260869565217388
 40
0.8260869565217388
 40
0.8260869565217388
 40
0.8260869565217388
 40
0.869565217391304
 40
0.869565217391304
 40
0.869565217391304
 40
0.869565217391304
 40
0.9130434782608692
 40
0.9130434782608692
 40
0.9130434782608692
 40
0.9130434782608692
 40
0.9565217391304344
 40
0.9565217391304344
 40
0.9565217391304344
 40
0.9565217391304344
 40
1.0
 40
1.0
 40
1.0
 40
1.0
 10
-0.6972600000000001
 20
0.6081700000000001
 30
0.0
 10
-0.65717
 20
0.5769800000000001
 30
0.0
 10
-0.56806
 20
0.4299500000000001
 30
0.0
 10
-0.5636000000000001
 20
0.35866
 30
0.0
 10
-0.5636000000000001
 20
0.35866
 30
0.0
 10
-0.5725100000000001
 20
0.34084
 30
0.0
 10
-0.61707
 20
0.33193
 30
0.0
 10
-0.6126100000000001
 20
0.30965
 30
0.0
 10
-0.6126100000000001
 20
0.30965
 30
0.0
 10
-0.60816
 20
0.28292
 30
0.0
 10
-0.5769700000000001
 20
0.33639
 30
0.0
 10
-0.5502400000000001
 20
0.32302
 30
0.0
 10
-0.5502400000000001
 20
0.32302
 30
0.0
 10
-0.5502400000000001
 20
0.32302
 30
0.0
 10
-0.54578
 20
0.32302
 30
0.0
 10
-0.54578
 20
0.32302
 30
0.0
 10
-0.54578
 20
0.32302
 30
0.0
 10
-0.54578
 20
0.32302
 30
0.0
 10
-0.51459
 20
0.24728
 30
0.0
 10
-0.51459
 20
0.24728
 30
0.0
 10
-0.51459
 20
0.24728
 30
0.0
 10
-0.51459
 20
0.24728
 30
0.0
 10
-0.5235000000000001
 20
0.25173
 30
0.0
 10
-0.5235000000000001
 20
0.25173
 30
0.0
 10
-0.5235000000000001
 20
0.25173
 30
0.0
 10
-0.5235000000000001
 20
0.25173
 30
0.0
 10
-0.59924
 20
0.18936
 30
0.0
 10
-0.59924
 20
0.18936
 30
0.0
 10
-0.59924
 20
0.18936
 30
0.0
 10
-0.59924
 20
0.18936
 30
0.0
 10
-0.5858800000000001
 20
0.17599
 30
0.0
 10
-0.5858800000000001
 20
0.17599
 30
0.0
 10
-0.5858800000000001
 20
0.17599
 30
0.0
 10
-0.5858800000000001
 20
0.17599
 30
0.0
 10
-0.51905
 20
0.21609
 30
0.0
 10
-0.51905
 20
0.21609
 30
0.0
 10
-0.51905
 20
0.21609
 30
0.0
 10
-0.51905
 20
0.21609
 30
0.0
 10
-0.51014
 20
0.22054
 30
0.0
 10
-0.51014
 20
0.22054
 30
0.0
 10
-0.51014
 20
0.22054
 30
0.0
 10
-0.51014
 20
0.22054
 30
0.0
 10
-0.30519
 20
-0.11807
 30
0.0
 10
-0.30519
 20
-0.11807
 30
0.0
 10
-0.30519
 20
-0.11807
 30
0.0
 10
-0.30519
 20
-0.11807
 30
0.0
 10
-0.29182
 20
-0.10916
 30
0.0
 10
-0.29182
 20
-0.10916
 30
0.0
 10
-0.29182
 20
-0.10916
 30
0.0
 10
-0.26954
 20
-0.07797
 30
0.0
 10
-0.25172
 20
-0.10025
 30
0.0
 10
-0.29182
 20
-0.05569
 30
0.0
 10
-0.29182
 20
-0.05569
 30
0.0
 10
-0.30964
 20
-0.03787
 30
0.0
 10
-0.32746
 20
-0.02005
 30
0.0
 10
-0.34083
 20
0.00223
 30
0.0
 10
-0.34083
 20
0.00223
 30
0.0
 10
-0.37202
 20
0.03787
 30
0.0
 10
-0.3943
 20
0.08243
 30
0.0
 10
-0.42103
 20
0.12698
 30
0.0
 10
-0.42103
 20
0.12698
 30
0.0
 10
-0.44331
 20
0.17153
 30
0.0
 10
-0.47004
 20
0.21163
 30
0.0
 10
-0.4834000000000001
 20
0.26955
 30
0.0
 10
-0.4834000000000001
 20
0.26955
 30
0.0
 10
-0.49231
 20
0.29629
 30
0.0
 10
-0.5012300000000001
 20
0.31856
 30
0.0
 10
-0.51014
 20
0.3453000000000001
 30
0.0
 10
-0.51014
 20
0.3453000000000001
 30
0.0
 10
-0.5235000000000001
 20
0.3943100000000001
 30
0.0
 10
-0.49677
 20
0.38985
 30
0.0
 10
-0.49677
 20
0.4255
 30
0.0
 10
-0.49677
 20
0.4255
 30
0.0
 10
-0.49677
 20
0.4255
 30
0.0
 10
-0.54132
 20
0.40767
 30
0.0
 10
-0.54132
 20
0.40767
 30
0.0
 10
-0.54132
 20
0.40767
 30
0.0
 10
-0.5502400000000001
 20
0.4477700000000001
 30
0.0
 10
-0.59924
 20
0.48342
 30
0.0
 10
-0.59033
 20
0.54579
 30
0.0
 10
-0.59033
 20
0.54579
 30
0.0
 10
-0.5725100000000001
 20
0.6259900000000001
 30
0.0
 10
-0.63934
 20
0.5636100000000001
 30
0.0
 10
-0.63934
 20
0.67054
 30
0.0
 10
-0.63934
 20
0.67054
 30
0.0
 10
-0.63934
 20
0.67054
 30
0.0
 10
-0.6839000000000001
 20
0.68837
 30
0.0
 10
-0.6839000000000001
 20
0.68837
 30
0.0
 10
-0.6839000000000001
 20
0.68837
 30
0.0
 10
-0.6839000000000001
 20
0.68837
 30
0.0
 10
-0.6972600000000001
 20
0.6081700000000001
 30
0.0
 10
-0.6972600000000001
 20
0.6081700000000001
 30
0.0
  0
SPLINE
  5
45
330
1F
100
AcDbEntity
  8
Plan 1
100
AcDbSpline
210
0.0
220
0.0
230
1.0
 70
    11
 71
     3
 72
    32
 73
    28
 74
     0
 42
0.0000000001
 43
0.0000000001
 40
0.0
 40
0.0
 40
0.0
 40
0.0
 40
0.1428571428571429
 40
0.1428571428571429
 40
0.1428571428571429
 40
0.1428571428571429
 40
0.2857142857142857
 40
0.2857142857142857
 40
0.2857142857142857
 40
0.2857142857142857
 40
0.4285714285714286
 40
0.4285714285714286
 40
0.4285714285714286
 40
0.4285714285714286
 40
0.5714285714285714
 40
0.5714285714285714
 40
0.5714285714285714
 40
0.5714285714285714
 40
0.7142857142857142
 40
0.7142857142857142
 40
0.7142857142857142
 40
0.7142857142857142
 40
0.857142857142857
 40
0.857142857142857
 40
0.857142857142857
 40
0.857142857142857
 40
1.0
 40
1.0
 40
1.0
 40
1.0
 10
0.6928300000000001
 20
-0.10916
 30
0.0
 10
0.7552000000000001
 20
-0.08688
 30
0.0
 10
0.8576800000000001
 20
0.1448
 30
0.0
 10
0.8576800000000001
 20
0.26064
 30
0.0
 10
0.8576800000000001
 20
0.26064
 30
0.0
 10
0.8576800000000001
 20
0.26064
 30
0.0
 10
0.8576800000000001
 20
0.30074
 30
0.0
 10
0.8576800000000001
 20
0.30074
 30
0.0
 10
0.8576800000000001
 20
0.30074
 30
0.0
 10
0.8576800000000001
 20
0.3274800000000001
 30
0.0
 10
0.84877
 20
0.36757
 30
0.0
 10
0.8309500000000001
 20
0.3764900000000001
 30
0.0
 10
0.8309500000000001
 20
0.3764900000000001
 30
0.0
 10
0.8042100000000001
 20
0.3987600000000001
 30
0.0
 10
0.79976
 20
0.3453000000000001
 30
0.0
 10
0.7908500000000001
 20
0.3274800000000001
 30
0.0
 10
0.7908500000000001
 20
0.3274800000000001
 30
0.0
 10
0.77302
 20
0.27401
 30
0.0
 10
0.7552000000000001
 20
0.225
 30
0.0
 10
0.7284700000000001
 20
0.18045
 30
0.0
 10
0.7284700000000001
 20
0.18045
 30
0.0
 10
0.7151000000000001
 20
0.15817
 30
0.0
 10
0.6438200000000001
 20
0.06015
 30
0.0
 10
0.6438200000000001
 20
0.05569
 30
0.0
 10
0.6438200000000001
 20
0.05569
 30
0.0
 10
0.6438200000000001
 20
0.04233
 30
0.0
 10
0.6928300000000001
 20
-0.02896
 30
0.0
 10
0.6928300000000001
 20
-0.10916
 30
0.0
  0
SPLINE
  5
46
330
1F
100
AcDbEntity
  8
Plan 1
100
AcDbSpline
210
0.0
220
0.0
230
1.0
 70
    11
 71
     3
 72
    28
 73
    24
 74
     0
 42
0.0000000001
 43
0.0000000001
 40
0.0
 40
0.0
 40
0.0
 40
0.0
 40
0.1666666666666667
 40
0.1666666666666667
 40
0.1666666666666667
 40
0.1666666666666667
 40
0.3333333333333333
 40
0.3333333333333333
 40
0.3333333333333333
 40
0.3333333333333333
 40
0.5
 40
0.5
 40
0.5
 40
0.5
 40
0.6666666666666666
 40
0.6666666666666666
 40
0.6666666666666666
 40
0.6666666666666666
 40
0.8333333333333333
 40
0.8333333333333333
 40
0.8333333333333333
 40
0.8333333333333333
 40
1.0
 40
1.0
 40
1.0
 40
1.0
 10
-0.74182
 20
-0.08243
 30
0.0
 10
-0.74182
 20
-0.08243
 30
0.0
 10
-0.74182
 20
-0.11361
 30
0.0
 10
-0.74182
 20
-0.11361
 30
0.0
 10
-0.74182
 20
-0.11361
 30
0.0
 10
-0.74182
 20
-0.14035
 30
0.0
 10
-0.7329100000000001
 20
-0.15817
 30
0.0
 10
-0.7106300000000001
 20
-0.16262
 30
0.0
 10
-0.7106300000000001
 20
-0.16262
 30
0.0
 10
-0.70172
 20
-0.13589
 30
0.0
 10
-0.7061700000000001
 20
-0.11807
 30
0.0
 10
-0.69281
 20
-0.10025
 30
0.0
 10
-0.69281
 20
-0.10025
 30
0.0
 10
-0.67944
 20
-0.07797
 30
0.0
 10
-0.6616200000000001
 20
-0.07351
 30
0.0
 10
-0.6616200000000001
 20
-0.04678
 30
0.0
 10
-0.6616200000000001
 20
-0.04678
 30
0.0
 10
-0.6616200000000001
 20
-0.04678
 30
0.0
 10
-0.68835
 20
-0.02896
 30
0.0
 10
-0.68835
 20
-0.02896
 30
0.0
 10
-0.68835
 20
-0.02896
 30
0.0
 10
-0.71509
 20
-0.03342
 30
0.0
 10
-0.74182
 20
-0.04678
 30
0.0
 10
-0.74182
 20
-0.08243
 30
0.0
  0
SPLINE
  5
47
330
1F
100
AcDbEntity
  8
Plan 1
100
AcDbSpline
210
0.0
220
0.0
230
1.0
 70
    11
 71
     3
 72
    16
 73
    12
 74
     0
 42
0.0000000001
 43
0.0000000001
 40
0.0
 40
0.0
 40
0.0
 40
0.0
 40
0.3333333333333333
 40
0.3333333333333333
 40
0.3333333333333333
 40
0.3333333333333333
 40
0.6666666666666666
 40
0.6666666666666666
 40
0.6666666666666666
 40
0.6666666666666666
 40
1.0
 40
1.0
 40
1.0
 40
1.0
 10
-0.04232
 20
-0.18045
 30
0.0
 10
0.06016
 20
-0.18045
 30
0.0
 10
0.0958
 20
-0.225
 30
0.0
 10
0.10471
 20
-0.13589
 30
0.0
 10
0.10471
 20
-0.13589
 30
0.0
 10
0.11362
 20
-0.05569
 30
0.0
 10
0.04679
 20
-0.06906
 30
0.0
 10
-0.04232
 20
-0.06906
 30
0.0
 10
-0.04232
 20
-0.06906
 30
0.0
 10
-0.04232
 20
-0.06906
 30
0.0
 10
-0.04232
 20
-0.18045
 30
0.0
 10
-0.04232
 20
-0.18045
 30
0.0
  0
SPLINE
  5
48
330
1F
100
AcDbEntity
  8
Plan 1
100
AcDbSpline
210
0.0
220
0.0
230
1.0
 70
    11
 71
     3
 72
    40
 73
    36
 74
     0
 42
0.0000000001
 43
0.0000000001
 40
0.0
 40
0.0
 40
0.0
 40
0.0
 40
0.1111111111111111
 40
0.1111111111111111
 40
0.1111111111111111
 40
0.1111111111111111
 40
0.2222222222222222
 40
0.2222222222222222
 40
0.2222222222222222
 40
0.2222222222222222
 40
0.3333333333333333
 40
0.3333333333333333
 40
0.3333333333333333
 40
0.3333333333333333
 40
0.4444444444444444
 40
0.4444444444444444
 40
0.4444444444444444
 40
0.4444444444444444
 40
0.5555555555555556
 40
0.5555555555555556
 40
0.5555555555555556
 40
0.5555555555555556
 40
0.6666666666666667
 40
0.6666666666666667
 40
0.6666666666666667
 40
0.6666666666666667
 40
0.7777777777777779
 40
0.7777777777777779
 40
0.7777777777777779
 40
0.7777777777777779
 40
0.8888888888888891
 40
0.8888888888888891
 40
0.8888888888888891
 40
0.8888888888888891
 40
1.0
 40
1.0
 40
1.0
 40
1.0
 10
0.43441
 20
0.06015
 30
0.0
 10
0.43441
 20
0.06015
 30
0.0
 10
0.25174
 20
-0.09579
 30
0.0
 10
0.25174
 20
-0.09579
 30
0.0
 10
0.25174
 20
-0.09579
 30
0.0
 10
0.25174
 20
-0.09579
 30
0.0
 10
0.2606500000000001
 20
-0.1047
 30
0.0
 10
0.2606500000000001
 20
-0.1047
 30
0.0
 10
0.2606500000000001
 20
-0.1047
 30
0.0
 10
0.2606500000000001
 20
-0.1047
 30
0.0
 10
0.31412
 20
-0.19827
 30
0.0
 10
0.31412
 20
-0.19827
 30
0.0
 10
0.31412
 20
-0.19827
 30
0.0
 10
0.31412
 20
-0.19827
 30
0.0
 10
0.3096600000000001
 20
-0.20272
 30
0.0
 10
0.3096600000000001
 20
-0.20272
 30
0.0
 10
0.3096600000000001
 20
-0.20272
 30
0.0
 10
0.36758
 20
-0.20272
 30
0.0
 10
0.5859000000000001
 20
-0.0245
 30
0.0
 10
0.5859000000000001
 20
0.06015
 30
0.0
 10
0.5859000000000001
 20
0.06015
 30
0.0
 10
0.5859000000000001
 20
0.06015
 30
0.0
 10
0.5859000000000001
 20
0.10916
 30
0.0
 10
0.5859000000000001
 20
0.10916
 30
0.0
 10
0.5859000000000001
 20
0.10916
 30
0.0
 10
0.5859000000000001
 20
0.15371
 30
0.0
 10
0.50124
 20
0.26955
 30
0.0
 10
0.47006
 20
0.21163
 30
0.0
 10
0.47006
 20
0.21163
 30
0.0
 10
0.45223
 20
0.1849
 30
0.0
 10
0.4433200000000001
 20
0.15371
 30
0.0
 10
0.4255
 20
0.12252
 30
0.0
 10
0.4255
 20
0.12252
 30
0.0
 10
0.39877
 20
0.07797
 30
0.0
 10
0.3764900000000001
 20
0.07351
 30
0.0
 10
0.43441
 20
0.06015
 30
0.0
  0
SPLINE
  5
49
330
1F
100
AcDbEntity
  8
Plan 1
100
AcDbSpline
210
0.0
220
0.0
230
1.0
 70
    11
 71
     3
 72
    32
 73
    28
 74
     0
 42
0.0000000001
 43
0.0000000001
 40
0.0
 40
0.0
 40
0.0
 40
0.0
 40
0.1428571428571429
 40
0.1428571428571429
 40
0.1428571428571429
 40
0.1428571428571429
 40
0.2857142857142857
 40
0.2857142857142857
 40
0.2857142857142857
 40
0.2857142857142857
 40
0.4285714285714286
 40
0.4285714285714286
 40
0.4285714285714286
 40
0.4285714285714286
 40
0.5714285714285714
 40
0.5714285714285714
 40
0.5714285714285714
 40
0.5714285714285714
 40
0.7142857142857142
 40
0.7142857142857142
 40
0.7142857142857142
 40
0.7142857142857142
 40
0.857142857142857
 40
0.857142857142857
 40
0.857142857142857
 40
0.857142857142857
 40
1.0
 40
1.0
 40
1.0
 40
1.0
 10
-0.20717
 20
-0.23391
 30
0.0
 10
-0.20717
 20
-0.23391
 30
0.0
 10
-0.06905
 20
-0.17153
 30
0.0
 10
-0.06905
 20
-0.17153
 30
0.0
 10
-0.06905
 20
-0.17153
 30
0.0
 10
-0.06905
 20
-0.17153
 30
0.0
 10
-0.06459
 20
-0.18045
 30
0.0
 10
-0.06459
 20
-0.18045
 30
0.0
 10
-0.06459
 20
-0.18045
 30
0.0
 10
-0.06014
 20
-0.17153
 30
0.0
 10
-0.06014
 20
-0.17153
 30
0.0
 10
-0.06014
 20
-0.15817
 30
0.0
 10
-0.06014
 20
-0.15817
 30
0.0
 10
-0.06014
 20
-0.15817
 30
0.0
 10
-0.06014
 20
-0.08688
 30
0.0
 10
-0.06014
 20
-0.08688
 30
0.0
 10
-0.06014
 20
-0.08688
 30
0.0
 10
-0.06014
 20
-0.07797
 30
0.0
 10
-0.06459
 20
-0.07351
 30
0.0
 10
-0.07351
 20
-0.07351
 30
0.0
 10
-0.07351
 20
-0.07351
 30
0.0
 10
-0.10915
 20
-0.07351
 30
0.0
 10
-0.18044
 20
-0.09134
 30
0.0
 10
-0.19826
 20
-0.1047
 30
0.0
 10
-0.19826
 20
-0.1047
 30
0.0
 10
-0.22053
 20
-0.11807
 30
0.0
 10
-0.22053
 20
-0.20272
 30
0.0
 10
-0.20717
 20
-0.23391
 30
0.0
  0
SPLINE
  5
4A
330
1F
100
AcDbEntity
  8
Plan 1
100
AcDbSpline
210
0.0
220
0.0
230
1.0
 70
    11
 71
     3
 72
    20
 73
    16
 74
     0
 42
0.0000000001
 43
0.0000000001
 40
0.0
 40
0.0
 40
0.0
 40
0.0
 40
0.25
 40
0.25
 40
0.25
 40
0.25
 40
0.5
 40
0.5
 40
0.5
 40
0.5
 40
0.75
 40
0.75
 40
0.75
 40
0.75
 40
1.0
 40
1.0
 40
1.0
 40
1.0
 10
-0.04677
 20
-0.21609
 30
0.0
 10
-0.04677
 20
-0.22946
 30
0.0
 10
0.0958
 20
-0.24282
 30
0.0
 10
0.0958
 20
-0.225
 30
0.0
 10
0.0958
 20
-0.225
 30
0.0
 10
0.0958
 20
-0.21609
 30
0.0
 10
0.09135
 20
-0.21609
 30
0.0
 10
0.08689
 20
-0.20718
 30
0.0
 10
0.08689
 20
-0.20718
 30
0.0
 10
0.08689
 20
-0.20718
 30
0.0
 10
-0.04232
 20
-0.19827
 30
0.0
 10
-0.04232
 20
-0.19827
 30
0.0
 10
-0.04232
 20
-0.19827
 30
0.0
 10
-0.04677
 20
-0.21163
 30
0.0
 10
-0.04677
 20
-0.20718
 30
0.0
 10
-0.04677
 20
-0.21609
 30
0.0
  0
SPLINE
  5
4B
330
1F
100
AcDbEntity
  8
Plan 1
100
AcDbSpline
210
0.0
220
0.0
230
1.0
 70
    11
 71
     3
 72
    24
 73
    20
 74
     0
 42
0.0000000001
 43
0.0000000001
 40
0.0
 40
0.0
 40
0.0
 40
0.0
 40
0.2
 40
0.2
 40
0.2
 40
0.2
 40
0.4
 40
0.4
 40
0.4
 40
0.4
 40
0.6000000000000001
 40
0.6000000000000001
 40
0.6000000000000001
 40
0.6000000000000001
 40
0.8
 40
0.8
 40
0.8
 40
0.8
 40
1.0
 40
1.0
 40
1.0
 40
1.0
 10
0.11362
 20
-0.19381
 30
0.0
 10
0.1359
 20
-0.20272
 30
0.0
 10
0.16263
 20
-0.20718
 30
0.0
 10
0.18491
 20
-0.22054
 30
0.0
 10
0.18491
 20
-0.22054
 30
0.0
 10
0.20273
 20
-0.23837
 30
0.0
 10
0.21164
 20
-0.26955
 30
0.0
 10
0.22946
 20
-0.27401
 30
0.0
 10
0.22946
 20
-0.27401
 30
0.0
 10
0.22946
 20
-0.26064
 30
0.0
 10
0.25174
 20
-0.21609
 30
0.0
 10
0.25174
 20
-0.20718
 30
0.0
 10
0.25174
 20
-0.20718
 30
0.0
 10
0.25174
 20
-0.15371
 30
0.0
 10
0.176
 20
-0.09579
 30
0.0
 10
0.12699
 20
-0.09134
 30
0.0
 10
0.12699
 20
-0.09134
 30
0.0
 10
0.12699
 20
-0.09134
 30
0.0
 10
0.11362
 20
-0.19381
 30
0.0
 10
0.11362
 20
-0.19381
 30
0.0
  0
SPLINE
  5
4C
330
1F
100
AcDbEntity
  8
Plan 1
100
AcDbSpline
210
0.0
220
0.0
230
1.0
 70
    11
 71
     3
 72
    24
 73
    20
 74
     0
 42
0.0000000001
 43
0.0000000001
 40
0.0
 40
0.0
 40
0.0
 40
0.0
 40
0.2
 40
0.2
 40
0.2
 40
0.2
 40
0.4
 40
0.4
 40
0.4
 40
0.4
 40
0.6000000000000001
 40
0.6000000000000001
 40
0.6000000000000001
 40
0.6000000000000001
 40
0.8
 40
0.8
 40
0.8
 40
0.8
 40
1.0
 40
1.0
 40
1.0
 40
1.0
 10
-0.20124
 20
-0.271
 30
0.0
 10
-0.20124
 20
-0.28882
 30
0.0
 10
-0.20124
 20
-0.271
 30
0.0
 10
-0.19679
 20
-0.28437
 30
0.0
 10
-0.19679
 20
-0.28437
 30
0.0
 10
-0.1656
 20
-0.27545
 30
0.0
 10
-0.14778
 20
-0.2309
 30
0.0
 10
-0.08095
 20
-0.2309
 30
0.0
 10
-0.08095
 20
-0.2309
 30
0.0
 10
-0.08095
 20
-0.2309
 30
0.0
 10
-0.06312
 20
-0.2309
 30
0.0
 10
-0.06312
 20
-0.2309
 30
0.0
 10
-0.06312
 20
-0.2309
 30
0.0
 10
-0.06312
 20
-0.2309
 30
0.0
 10
-0.05867
 20
-0.21753
 30
0.0
 10
-0.05867
 20
-0.21753
 30
0.0
 10
-0.05867
 20
-0.21753
 30
0.0
 10
-0.08095
 20
-0.17298
 30
0.0
 10
-0.20124
 20
-0.23981
 30
0.0
 10
-0.20124
 20
-0.271
 30
0.0
  0
SPLINE
  5
4D
330
1F
100
AcDbEntity
  8
Plan 1
100
AcDbSpline
210
0.0
220
0.0
230
1.0
 70
    11
 71
     3
 72
    32
 73
    28
 74
     0
 42
0.0000000001
 43
0.0000000001
 40
0.0
 40
0.0
 40
0.0
 40
0.0
 40
0.1428571428571429
 40
0.1428571428571429
 40
0.1428571428571429
 40
0.1428571428571429
 40
0.2857142857142857
 40
0.2857142857142857
 40
0.2857142857142857
 40
0.2857142857142857
 40
0.4285714285714286
 40
0.4285714285714286
 40
0.4285714285714286
 40
0.4285714285714286
 40
0.5714285714285714
 40
0.5714285714285714
 40
0.5714285714285714
 40
0.5714285714285714
 40
0.7142857142857142
 40
0.7142857142857142
 40
0.7142857142857142
 40
0.7142857142857142
 40
0.857142857142857
 40
0.857142857142857
 40
0.857142857142857
 40
0.857142857142857
 40
1.0
 40
1.0
 40
1.0
 40
1.0
 10
-0.2829100000000001
 20
-0.1849
 30
0.0
 10
-0.2829100000000001
 20
-0.1849
 30
0.0
 10
-0.2829100000000001
 20
-0.21609
 30
0.0
 10
-0.2829100000000001
 20
-0.21609
 30
0.0
 10
-0.2829100000000001
 20
-0.21609
 30
0.0
 10
-0.2829100000000001
 20
-0.21609
 30
0.0
 10
-0.274
 20
-0.28292
 30
0.0
 10
-0.274
 20
-0.28292
 30
0.0
 10
-0.274
 20
-0.28292
 30
0.0
 10
-0.274
 20
-0.28292
 30
0.0
 10
-0.26954
 20
-0.28738
 30
0.0
 10
-0.26954
 20
-0.28738
 30
0.0
 10
-0.26954
 20
-0.28738
 30
0.0
 10
-0.26954
 20
-0.28738
 30
0.0
 10
-0.22053
 20
-0.25173
 30
0.0
 10
-0.22053
 20
-0.25173
 30
0.0
 10
-0.22053
 20
-0.25173
 30
0.0
 10
-0.22053
 20
-0.25173
 30
0.0
 10
-0.22499
 20
-0.24728
 30
0.0
 10
-0.22499
 20
-0.24728
 30
0.0
 10
-0.22499
 20
-0.24728
 30
0.0
 10
-0.22499
 20
-0.24728
 30
0.0
 10
-0.2339
 20
-0.12698
 30
0.0
 10
-0.2339
 20
-0.12698
 30
0.0
 10
-0.2339
 20
-0.12698
 30
0.0
 10
-0.25618
 20
-0.13144
 30
0.0
 10
-0.2829100000000001
 20
-0.15371
 30
0.0
 10
-0.2829100000000001
 20
-0.1849
 30
0.0
  0
SPLINE
  5
4E
330
1F
100
AcDbEntity
  8
Plan 1
100
AcDbSpline
210
0.0
220
0.0
230
1.0
 70
    11
 71
     3
 72
    20
 73
    16
 74
     0
 42
0.0000000001
 43
0.0000000001
 40
0.0
 40
0.0
 40
0.0
 40
0.0
 40
0.25
 40
0.25
 40
0.25
 40
0.25
 40
0.5
 40
0.5
 40
0.5
 40
0.5
 40
0.75
 40
0.75
 40
0.75
 40
0.75
 40
1.0
 40
1.0
 40
1.0
 40
1.0
 10
0.5859000000000001
 20
-0.23391
 30
0.0
 10
0.5859000000000001
 20
-0.23391
 30
0.0
 10
0.5859000000000001
 20
-0.27401
 30
0.0
 10
0.5859000000000001
 20
-0.27401
 30
0.0
 10
0.5859000000000001
 20
-0.27401
 30
0.0
 10
0.5859000000000001
 20
-0.29629
 30
0.0
 10
0.57699
 20
-0.26955
 30
0.0
 10
0.5859000000000001
 20
-0.28738
 30
0.0
 10
0.5859000000000001
 20
-0.28738
 30
0.0
 10
0.60372
 20
-0.29629
 30
0.0
 10
0.66164
 20
-0.20718
 30
0.0
 10
0.6705500000000001
 20
-0.17599
 30
0.0
 10
0.6705500000000001
 20
-0.17599
 30
0.0
 10
0.63936
 20
-0.17599
 30
0.0
 10
0.6304500000000001
 20
-0.22054
 30
0.0
 10
0.5859000000000001
 20
-0.23391
 30
0.0
  0
SPLINE
  5
4F
330
1F
100
AcDbEntity
  8
Plan 1
100
AcDbSpline
210
0.0
220
0.0
230
1.0
 70
    11
 71
     3
 72
    24
 73
    20
 74
     0
 42
0.0000000001
 43
0.0000000001
 40
0.0
 40
0.0
 40
0.0
 40
0.0
 40
0.2
 40
0.2
 40
0.2
 40
0.2
 40
0.4
 40
0.4
 40
0.4
 40
0.4
 40
0.6000000000000001
 40
0.6000000000000001
 40
0.6000000000000001
 40
0.6000000000000001
 40
0.8
 40
0.8
 40
0.8
 40
0.8
 40
1.0
 40
1.0
 40
1.0
 40
1.0
 10
0.10917
 20
-0.23837
 30
0.0
 10
0.12699
 20
-0.25173
 30
0.0
 10
0.14481
 20
-0.26064
 30
0.0
 10
0.15818
 20
-0.27847
 30
0.0
 10
0.15818
 20
-0.27847
 30
0.0
 10
0.176
 20
-0.29183
 30
0.0
 10
0.18045
 20
-0.31856
 30
0.0
 10
0.19828
 20
-0.3274800000000001
 30
0.0
 10
0.19828
 20
-0.3274800000000001
 30
0.0
 10
0.19828
 20
-0.32302
 30
0.0
 10
0.21164
 20
-0.30074
 30
0.0
 10
0.21164
 20
-0.30074
 30
0.0
 10
0.21164
 20
-0.30074
 30
0.0
 10
0.21164
 20
-0.26064
 30
0.0
 10
0.16263
 20
-0.21609
 30
0.0
 10
0.11362
 20
-0.21609
 30
0.0
 10
0.11362
 20
-0.21609
 30
0.0
 10
0.11362
 20
-0.21609
 30
0.0
 10
0.10917
 20
-0.23837
 30
0.0
 10
0.10917
 20
-0.23837
 30
0.0
  0
SPLINE
  5
50
330
1F
100
AcDbEntity
  8
Plan 1
100
AcDbSpline
210
0.0
220
0.0
230
1.0
 70
    11
 71
     3
 72
    24
 73
    20
 74
     0
 42
0.0000000001
 43
0.0000000001
 40
0.0
 40
0.0
 40
0.0
 40
0.0
 40
0.2
 40
0.2
 40
0.2
 40
0.2
 40
0.4
 40
0.4
 40
0.4
 40
0.4
 40
0.6000000000000001
 40
0.6000000000000001
 40
0.6000000000000001
 40
0.6000000000000001
 40
0.8
 40
0.8
 40
0.8
 40
0.8
 40
1.0
 40
1.0
 40
1.0
 40
1.0
 10
-0.63934
 20
-0.05124
 30
0.0
 10
-0.63934
 20
-0.12252
 30
0.0
 10
-0.45222
 20
-0.33193
 30
0.0
 10
-0.3943
 20
-0.33193
 30
0.0
 10
-0.3943
 20
-0.33193
 30
0.0
 10
-0.3542
 20
-0.33193
 30
0.0
 10
-0.43885
 20
-0.26064
 30
0.0
 10
-0.44331
 20
-0.26064
 30
0.0
 10
-0.44331
 20
-0.26064
 30
0.0
 10
-0.47004
 20
-0.23837
 30
0.0
 10
-0.48786
 20
-0.21609
 30
0.0
 10
-0.51014
 20
-0.18936
 30
0.0
 10
-0.51014
 20
-0.18936
 30
0.0
 10
-0.5324100000000001
 20
-0.16262
 30
0.0
 10
-0.6215200000000001
 20
-0.01559
 30
0.0
 10
-0.6215200000000001
 20
-0.01559
 30
0.0
 10
-0.6215200000000001
 20
-0.01559
 30
0.0
 10
-0.6304300000000001
 20
-0.0245
 30
0.0
 10
-0.63934
 20
-0.03342
 30
0.0
 10
-0.63934
 20
-0.05124
 30
0.0
  0
SPLINE
  5
51
330
1F
100
AcDbEntity
  8
Plan 1
100
AcDbSpline
210
0.0
220
0.0
230
1.0
 70
    11
 71
     3
 72
    20
 73
    16
 74
     0
 42
0.0000000001
 43
0.0000000001
 40
0.0
 40
0.0
 40
0.0
 40
0.0
 40
0.25
 40
0.25
 40
0.25
 40
0.25
 40
0.5
 40
0.5
 40
0.5
 40
0.5
 40
0.75
 40
0.75
 40
0.75
 40
0.75
 40
1.0
 40
1.0
 40
1.0
 40
1.0
 10
-0.26063
 20
-0.31411
 30
0.0
 10
-0.26063
 20
-0.3274800000000001
 30
0.0
 10
-0.25172
 20
-0.33193
 30
0.0
 10
-0.23836
 20
-0.3274800000000001
 30
0.0
 10
-0.23836
 20
-0.3274800000000001
 30
0.0
 10
-0.23836
 20
-0.3274800000000001
 30
0.0
 10
-0.21162
 20
-0.30074
 30
0.0
 10
-0.21162
 20
-0.30074
 30
0.0
 10
-0.21162
 20
-0.30074
 30
0.0
 10
-0.21162
 20
-0.30074
 30
0.0
 10
-0.22053
 20
-0.27401
 30
0.0
 10
-0.22053
 20
-0.27401
 30
0.0
 10
-0.22053
 20
-0.27401
 30
0.0
 10
-0.2339
 20
-0.27847
 30
0.0
 10
-0.26063
 20
-0.29629
 30
0.0
 10
-0.26063
 20
-0.31411
 30
0.0
  0
SPLINE
  5
52
330
1F
100
AcDbEntity
  8
Plan 1
100
AcDbSpline
210
0.0
220
0.0
230
1.0
 70
    11
 71
     3
 72
    20
 73
    16
 74
     0
 42
0.0000000001
 43
0.0000000001
 40
0.0
 40
0.0
 40
0.0
 40
0.0
 40
0.25
 40
0.25
 40
0.25
 40
0.25
 40
0.5
 40
0.5
 40
0.5
 40
0.5
 40
0.75
 40
0.75
 40
0.75
 40
0.75
 40
1.0
 40
1.0
 40
1.0
 40
1.0
 10
-0.3319200000000001
 20
-0.24728
 30
0.0
 10
-0.3319200000000001
 20
-0.26955
 30
0.0
 10
-0.30519
 20
-0.34975
 30
0.0
 10
-0.28737
 20
-0.35421
 30
0.0
 10
-0.28737
 20
-0.35421
 30
0.0
 10
-0.28737
 20
-0.35421
 30
0.0
 10
-0.2829100000000001
 20
-0.31856
 30
0.0
 10
-0.2829100000000001
 20
-0.31856
 30
0.0
 10
-0.2829100000000001
 20
-0.31856
 30
0.0
 10
-0.2829100000000001
 20
-0.31411
 30
0.0
 10
-0.30073
 20
-0.22946
 30
0.0
 10
-0.30073
 20
-0.19381
 30
0.0
 10
-0.30073
 20
-0.19381
 30
0.0
 10
-0.3141000000000001
 20
-0.20272
 30
0.0
 10
-0.3319200000000001
 20
-0.225
 30
0.0
 10
-0.3319200000000001
 20
-0.24728
 30
0.0
  0
SPLINE
  5
53
330
1F
100
AcDbEntity
  8
Plan 1
100
AcDbSpline
210
0.0
220
0.0
230
1.0
 70
    11
 71
     3
 72
    24
 73
    20
 74
     0
 42
0.0000000001
 43
0.0000000001
 40
0.0
 40
0.0
 40
0.0
 40
0.0
 40
0.2
 40
0.2
 40
0.2
 40
0.2
 40
0.4
 40
0.4
 40
0.4
 40
0.4
 40
0.6000000000000001
 40
0.6000000000000001
 40
0.6000000000000001
 40
0.6000000000000001
 40
0.8
 40
0.8
 40
0.8
 40
0.8
 40
1.0
 40
1.0
 40
1.0
 40
1.0
 10
0.3274800000000001
 20
-0.2651
 30
0.0
 10
0.3274800000000001
 20
-0.2651
 30
0.0
 10
0.3274800000000001
 20
-0.32302
 30
0.0
 10
0.3274800000000001
 20
-0.32302
 30
0.0
 10
0.3274800000000001
 20
-0.32302
 30
0.0
 10
0.3274800000000001
 20
-0.32302
 30
0.0
 10
0.32303
 20
-0.3631200000000001
 30
0.0
 10
0.32303
 20
-0.3631200000000001
 30
0.0
 10
0.32303
 20
-0.3631200000000001
 30
0.0
 10
0.39877
 20
-0.35421
 30
0.0
 10
0.6349100000000001
 20
-0.20718
 30
0.0
 10
0.6081700000000001
 20
-0.09134
 30
0.0
 10
0.6081700000000001
 20
-0.09134
 30
0.0
 10
0.5859000000000001
 20
0.02005
 30
0.0
 10
0.51015
 20
-0.09134
 30
0.0
 10
0.4656
 20
-0.12698
 30
0.0
 10
0.4656
 20
-0.12698
 30
0.0
 10
0.42105
 20
-0.16708
 30
0.0
 10
0.3274800000000001
 20
-0.19827
 30
0.0
 10
0.3274800000000001
 20
-0.2651
 30
0.0
  0
SPLINE
  5
54
330
1F
100
AcDbEntity
  8
Plan 1
100
AcDbSpline
210
0.0
220
0.0
230
1.0
 70
    11
 71
     3
 72
    16
 73
    12
 74
     0
 42
0.0000000001
 43
0.0000000001
 40
0.0
 40
0.0
 40
0.0
 40
0.0
 40
0.3333333333333333
 40
0.3333333333333333
 40
0.3333333333333333
 40
0.3333333333333333
 40
0.6666666666666666
 40
0.6666666666666666
 40
0.6666666666666666
 40
0.6666666666666666
 40
1.0
 40
1.0
 40
1.0
 40
1.0
 10
-0.26954
 20
-0.35866
 30
0.0
 10
-0.26954
 20
-0.37203
 30
0.0
 10
-0.2650900000000001
 20
-0.36757
 30
0.0
 10
-0.26063
 20
-0.37203
 30
0.0
 10
-0.26063
 20
-0.37203
 30
0.0
 10
-0.26063
 20
-0.37203
 30
0.0
 10
-0.26063
 20
-0.34975
 30
0.0
 10
-0.26063
 20
-0.34975
 30
0.0
 10
-0.26063
 20
-0.34975
 30
0.0
 10
-0.2650900000000001
 20
-0.34975
 30
0.0
 10
-0.26954
 20
-0.34975
 30
0.0
 10
-0.26954
 20
-0.35866
 30
0.0
  0
SPLINE
  5
55
330
1F
100
AcDbEntity
  8
Plan 1
100
AcDbSpline
210
0.0
220
0.0
230
1.0
 70
    11
 71
     3
 72
    20
 73
    16
 74
     0
 42
0.0000000001
 43
0.0000000001
 40
0.0
 40
0.0
 40
0.0
 40
0.0
 40
0.25
 40
0.25
 40
0.25
 40
0.25
 40
0.5
 40
0.5
 40
0.5
 40
0.5
 40
0.75
 40
0.75
 40
0.75
 40
0.75
 40
1.0
 40
1.0
 40
1.0
 40
1.0
 10
0.24283
 20
-0.37203
 30
0.0
 10
0.25174
 20
-0.36757
 30
0.0
 10
0.26956
 20
-0.34084
 30
0.0
 10
0.26956
 20
-0.33193
 30
0.0
 10
0.26956
 20
-0.33193
 30
0.0
 10
0.26956
 20
-0.33193
 30
0.0
 10
0.26956
 20
-0.27401
 30
0.0
 10
0.26956
 20
-0.27401
 30
0.0
 10
0.26956
 20
-0.27401
 30
0.0
 10
0.26956
 20
-0.26064
 30
0.0
 10
0.26511
 20
-0.26064
 30
0.0
 10
0.26511
 20
-0.25173
 30
0.0
 10
0.26511
 20
-0.25173
 30
0.0
 10
0.22946
 20
-0.26064
 30
0.0
 10
0.23392
 20
-0.33193
 30
0.0
 10
0.24283
 20
-0.37203
 30
0.0
  0
SPLINE
  5
56
330
1F
100
AcDbEntity
  8
Plan 1
100
AcDbSpline
210
0.0
220
0.0
230
1.0
 70
    11
 71
     3
 72
    16
 73
    12
 74
     0
 42
0.0000000001
 43
0.0000000001
 40
0.0
 40
0.0
 40
0.0
 40
0.0
 40
0.3333333333333333
 40
0.3333333333333333
 40
0.3333333333333333
 40
0.3333333333333333
 40
0.6666666666666666
 40
0.6666666666666666
 40
0.6666666666666666
 40
0.6666666666666666
 40
1.0
 40
1.0
 40
1.0
 40
1.0
 10
-0.30073
 20
-0.42104
 30
0.0
 10
-0.28737
 20
-0.38985
 30
0.0
 10
-0.29628
 20
-0.3854
 30
0.0
 10
-0.30964
 20
-0.35866
 30
0.0
 10
-0.30964
 20
-0.35866
 30
0.0
 10
-0.32301
 20
-0.33639
 30
0.0
 10
-0.32301
 20
-0.3052
 30
0.0
 10
-0.34529
 20
-0.3052
 30
0.0
 10
-0.34529
 20
-0.3052
 30
0.0
 10
-0.34529
 20
-0.35421
 30
0.0
 10
-0.32746
 20
-0.3987600000000001
 30
0.0
 10
-0.30073
 20
-0.42104
 30
0.0
  0
SPLINE
  5
57
330
1F
100
AcDbEntity
  8
Plan 1
100
AcDbSpline
210
0.0
220
0.0
230
1.0
 70
    11
 71
     3
 72
    24
 73
    20
 74
     0
 42
0.0000000001
 43
0.0000000001
 40
0.0
 40
0.0
 40
0.0
 40
0.0
 40
0.2
 40
0.2
 40
0.2
 40
0.2
 40
0.4
 40
0.4
 40
0.4
 40
0.4
 40
0.6000000000000001
 40
0.6000000000000001
 40
0.6000000000000001
 40
0.6000000000000001
 40
0.8
 40
0.8
 40
0.8
 40
0.8
 40
1.0
 40
1.0
 40
1.0
 40
1.0
 10
-0.69281
 20
-0.15371
 30
0.0
 10
-0.69281
 20
-0.15371
 30
0.0
 10
-0.69281
 20
-0.18045
 30
0.0
 10
-0.69281
 20
-0.18045
 30
0.0
 10
-0.69281
 20
-0.18045
 30
0.0
 10
-0.69281
 20
-0.27401
 30
0.0
 10
-0.45222
 20
-0.42549
 30
0.0
 10
-0.3497400000000001
 20
-0.42549
 30
0.0
 10
-0.3497400000000001
 20
-0.42549
 30
0.0
 10
-0.3542
 20
-0.35866
 30
0.0
 10
-0.4655800000000001
 20
-0.31411
 30
0.0
 10
-0.51014
 20
-0.26955
 30
0.0
 10
-0.51014
 20
-0.26955
 30
0.0
 10
-0.55469
 20
-0.23391
 30
0.0
 10
-0.6259800000000001
 20
-0.1448
 30
0.0
 10
-0.6438
 20
-0.08243
 30
0.0
 10
-0.6438
 20
-0.08243
 30
0.0
 10
-0.6749900000000001
 20
-0.08243
 30
0.0
 10
-0.69281
 20
-0.12252
 30
0.0
 10
-0.69281
 20
-0.15371
 30
0.0
  0
SPLINE
  5
58
330
1F
100
AcDbEntity
  8
Plan 1
100
AcDbSpline
210
0.0
220
0.0
230
1.0
 70
    11
 71
     3
 72
    16
 73
    12
 74
     0
 42
0.0000000001
 43
0.0000000001
 40
0.0
 40
0.0
 40
0.0
 40
0.0
 40
0.3333333333333333
 40
0.3333333333333333
 40
0.3333333333333333
 40
0.3333333333333333
 40
0.6666666666666666
 40
0.6666666666666666
 40
0.6666666666666666
 40
0.6666666666666666
 40
1.0
 40
1.0
 40
1.0
 40
1.0
 10
0.19382
 20
-0.43441
 30
0.0
 10
0.20719
 20
-0.4299500000000001
 30
0.0
 10
0.22055
 20
-0.4121300000000001
 30
0.0
 10
0.22055
 20
-0.3943100000000001
 30
0.0
 10
0.22055
 20
-0.3943100000000001
 30
0.0
 10
0.22055
 20
-0.3943100000000001
 30
0.0
 10
0.22055
 20
-0.33193
 30
0.0
 10
0.22055
 20
-0.33193
 30
0.0
 10
0.22055
 20
-0.33193
 30
0.0
 10
0.19382
 20
-0.33639
 30
0.0
 10
0.19382
 20
-0.3987600000000001
 30
0.0
 10
0.19382
 20
-0.43441
 30
0.0
  0
SPLINE
  5
59
330
1F
100
AcDbEntity
  8
Plan 1
100
AcDbSpline
210
0.0
220
0.0
230
1.0
 70
    11
 71
     3
 72
    28
 73
    24
 74
     0
 42
0.0000000001
 43
0.0000000001
 40
0.0
 40
0.0
 40
0.0
 40
0.0
 40
0.1666666666666667
 40
0.1666666666666667
 40
0.1666666666666667
 40
0.1666666666666667
 40
0.3333333333333333
 40
0.3333333333333333
 40
0.3333333333333333
 40
0.3333333333333333
 40
0.5
 40
0.5
 40
0.5
 40
0.5
 40
0.6666666666666666
 40
0.6666666666666666
 40
0.6666666666666666
 40
0.6666666666666666
 40
0.8333333333333333
 40
0.8333333333333333
 40
0.8333333333333333
 40
0.8333333333333333
 40
1.0
 40
1.0
 40
1.0
 40
1.0
 10
-0.00667
 20
-0.4433200000000001
 30
0.0
 10
-0.00667
 20
-0.4433200000000001
 30
0.0
 10
-0.00667
 20
-0.45223
 30
0.0
 10
-0.00667
 20
-0.45223
 30
0.0
 10
-0.00667
 20
-0.45223
 30
0.0
 10
-0.00667
 20
-0.47005
 30
0.0
 10
0.00669
 20
-0.4611400000000001
 30
0.0
 10
0.0156
 20
-0.45668
 30
0.0
 10
0.0156
 20
-0.45668
 30
0.0
 10
0.0156
 20
-0.45668
 30
0.0
 10
0.03788
 20
-0.24282
 30
0.0
 10
0.03788
 20
-0.24282
 30
0.0
 10
0.03788
 20
-0.24282
 30
0.0
 10
0.03788
 20
-0.24282
 30
0.0
 10
0.03342
 20
-0.24282
 30
0.0
 10
0.03342
 20
-0.24282
 30
0.0
 10
0.03342
 20
-0.24282
 30
0.0
 10
0.00224
 20
-0.24728
 30
0.0
 10
0.01115
 20
-0.29629
 30
0.0
 10
0.00669
 20
-0.33639
 30
0.0
 10
0.00669
 20
-0.33639
 30
0.0
 10
0.00224
 20
-0.37203
 30
0.0
 10
-0.00667
 20
-0.3987600000000001
 30
0.0
 10
-0.00667
 20
-0.4433200000000001
 30
0.0
  0
SPLINE
  5
5A
330
1F
100
AcDbEntity
  8
Plan 1
100
AcDbSpline
210
0.0
220
0.0
230
1.0
 70
    11
 71
     3
 72
    20
 73
    16
 74
     0
 42
0.0000000001
 43
0.0000000001
 40
0.0
 40
0.0
 40
0.0
 40
0.0
 40
0.25
 40
0.25
 40
0.25
 40
0.25
 40
0.5
 40
0.5
 40
0.5
 40
0.5
 40
0.75
 40
0.75
 40
0.75
 40
0.75
 40
1.0
 40
1.0
 40
1.0
 40
1.0
 10
-0.28737
 20
-0.43441
 30
0.0
 10
-0.28737
 20
-0.43441
 30
0.0
 10
-0.26063
 20
-0.4745
 30
0.0
 10
-0.26063
 20
-0.4745
 30
0.0
 10
-0.26063
 20
-0.4745
 30
0.0
 10
-0.26063
 20
-0.4745
 30
0.0
 10
-0.26063
 20
-0.4433200000000001
 30
0.0
 10
-0.26063
 20
-0.4433200000000001
 30
0.0
 10
-0.26063
 20
-0.4433200000000001
 30
0.0
 10
-0.26063
 20
-0.42549
 30
0.0
 10
-0.2650900000000001
 20
-0.43886
 30
0.0
 10
-0.26954
 20
-0.4165800000000001
 30
0.0
 10
-0.26954
 20
-0.4165800000000001
 30
0.0
 10
-0.26954
 20
-0.4165800000000001
 30
0.0
 10
-0.28737
 20
-0.43441
 30
0.0
 10
-0.28737
 20
-0.43441
 30
0.0
  0
SPLINE
  5
5B
330
1F
100
AcDbEntity
  8
Plan 1
100
AcDbSpline
210
0.0
220
0.0
230
1.0
 70
    11
 71
     3
 72
    20
 73
    16
 74
     0
 42
0.0000000001
 43
0.0000000001
 40
0.0
 40
0.0
 40
0.0
 40
0.0
 40
0.25
 40
0.25
 40
0.25
 40
0.25
 40
0.5
 40
0.5
 40
0.5
 40
0.5
 40
0.75
 40
0.75
 40
0.75
 40
0.75
 40
1.0
 40
1.0
 40
1.0
 40
1.0
 10
0.21164
 20
-0.4789600000000001
 30
0.0
 10
0.21164
 20
-0.4789600000000001
 30
0.0
 10
0.22055
 20
-0.4789600000000001
 30
0.0
 10
0.22055
 20
-0.4789600000000001
 30
0.0
 10
0.22055
 20
-0.4789600000000001
 30
0.0
 10
0.22055
 20
-0.45668
 30
0.0
 10
0.25174
 20
-0.43441
 30
0.0
 10
0.25174
 20
-0.40322
 30
0.0
 10
0.25174
 20
-0.40322
 30
0.0
 10
0.25174
 20
-0.40322
 30
0.0
 10
0.24283
 20
-0.40322
 30
0.0
 10
0.24283
 20
-0.40322
 30
0.0
 10
0.24283
 20
-0.40322
 30
0.0
 10
0.23837
 20
-0.4165800000000001
 30
0.0
 10
0.22055
 20
-0.4433200000000001
 30
0.0
 10
0.21164
 20
-0.4789600000000001
 30
0.0
  0
SPLINE
  5
5C
330
1F
100
AcDbEntity
  8
Plan 1
100
AcDbSpline
210
0.0
220
0.0
230
1.0
 70
    11
 71
     3
 72
    20
 73
    16
 74
     0
 42
0.0000000001
 43
0.0000000001
 40
0.0
 40
0.0
 40
0.0
 40
0.0
 40
0.25
 40
0.25
 40
0.25
 40
0.25
 40
0.5
 40
0.5
 40
0.5
 40
0.5
 40
0.75
 40
0.75
 40
0.75
 40
0.75
 40
1.0
 40
1.0
 40
1.0
 40
1.0
 10
0.17154
 20
-0.4789600000000001
 30
0.0
 10
0.17154
 20
-0.4789600000000001
 30
0.0
 10
0.16263
 20
-0.5056900000000001
 30
0.0
 10
0.16263
 20
-0.5056900000000001
 30
0.0
 10
0.16263
 20
-0.5056900000000001
 30
0.0
 10
0.16263
 20
-0.5056900000000001
 30
0.0
 10
0.18045
 20
-0.5056900000000001
 30
0.0
 10
0.18045
 20
-0.5056900000000001
 30
0.0
 10
0.18045
 20
-0.5056900000000001
 30
0.0
 10
0.18045
 20
-0.5056900000000001
 30
0.0
 10
0.18936
 20
-0.47005
 30
0.0
 10
0.18936
 20
-0.47005
 30
0.0
 10
0.18936
 20
-0.47005
 30
0.0
 10
0.18936
 20
-0.47005
 30
0.0
 10
0.17154
 20
-0.4789600000000001
 30
0.0
 10
0.17154
 20
-0.4789600000000001
 30
0.0
  0
SPLINE
  5
5D
330
1F
100
AcDbEntity
  8
Plan 1
100
AcDbSpline
210
0.0
220
0.0
230
1.0
 70
    11
 71
     3
 72
    16
 73
    12
 74
     0
 42
0.0000000001
 43
0.0000000001
 40
0.0
 40
0.0
 40
0.0
 40
0.0
 40
0.3333333333333333
 40
0.3333333333333333
 40
0.3333333333333333
 40
0.3333333333333333
 40
0.6666666666666666
 40
0.6666666666666666
 40
0.6666666666666666
 40
0.6666666666666666
 40
1.0
 40
1.0
 40
1.0
 40
1.0
 10
0.24283
 20
-0.5056900000000001
 30
0.0
 10
0.30075
 20
-0.50124
 30
0.0
 10
0.55471
 20
-0.34975
 30
0.0
 10
0.5057
 20
-0.29629
 30
0.0
 10
0.5057
 20
-0.29629
 30
0.0
 10
0.4967900000000001
 20
-0.29183
 30
0.0
 10
0.38095
 20
-0.35866
 30
0.0
 10
0.34976
 20
-0.37203
 30
0.0
 10
0.34976
 20
-0.37203
 30
0.0
 10
0.30075
 20
-0.38985
 30
0.0
 10
0.26511
 20
-0.45668
 30
0.0
 10
0.24283
 20
-0.5056900000000001
 30
0.0
  0
SPLINE
  5
5E
330
1F
100
AcDbEntity
  8
Plan 1
100
AcDbSpline
210
0.0
220
0.0
230
1.0
 70
    11
 71
     3
 72
    20
 73
    16
 74
     0
 42
0.0000000001
 43
0.0000000001
 40
0.0
 40
0.0
 40
0.0
 40
0.0
 40
0.25
 40
0.25
 40
0.25
 40
0.25
 40
0.5
 40
0.5
 40
0.5
 40
0.5
 40
0.75
 40
0.75
 40
0.75
 40
0.75
 40
1.0
 40
1.0
 40
1.0
 40
1.0
 10
-0.26954
 20
-0.5190600000000001
 30
0.0
 10
-0.26063
 20
-0.5190600000000001
 30
0.0
 10
-0.26063
 20
-0.51015
 30
0.0
 10
-0.26063
 20
-0.51015
 30
0.0
 10
-0.26063
 20
-0.51015
 30
0.0
 10
-0.26063
 20
-0.51015
 30
0.0
 10
-0.3319200000000001
 20
-0.4433200000000001
 30
0.0
 10
-0.3319200000000001
 20
-0.4433200000000001
 30
0.0
 10
-0.3319200000000001
 20
-0.4433200000000001
 30
0.0
 10
-0.3319200000000001
 20
-0.4433200000000001
 30
0.0
 10
-0.4477600000000001
 20
-0.4299500000000001
 30
0.0
 10
-0.4477600000000001
 20
-0.4299500000000001
 30
0.0
 10
-0.4477600000000001
 20
-0.4299500000000001
 30
0.0
 10
-0.44331
 20
-0.4477700000000001
 30
0.0
 10
-0.29182
 20
-0.5190600000000001
 30
0.0
 10
-0.26954
 20
-0.5190600000000001
 30
0.0
  0
SPLINE
  5
5F
330
1F
100
AcDbEntity
  8
Plan 1
100
AcDbSpline
210
0.0
220
0.0
230
1.0
 70
    11
 71
     3
 72
    16
 73
    12
 74
     0
 42
0.0000000001
 43
0.0000000001
 40
0.0
 40
0.0
 40
0.0
 40
0.0
 40
0.3333333333333333
 40
0.3333333333333333
 40
0.3333333333333333
 40
0.3333333333333333
 40
0.6666666666666666
 40
0.6666666666666666
 40
0.6666666666666666
 40
0.6666666666666666
 40
1.0
 40
1.0
 40
1.0
 40
1.0
 10
-0.06762
 20
-0.5680700000000001
 30
0.0
 10
-0.03197
 20
-0.5636100000000001
 30
0.0
 10
-0.0587
 20
-0.43886
 30
0.0
 10
-0.06316
 20
-0.4121300000000001
 30
0.0
 10
-0.06316
 20
-0.4121300000000001
 30
0.0
 10
-0.06762
 20
-0.37203
 30
0.0
 10
-0.06762
 20
-0.27401
 30
0.0
 10
-0.09435
 20
-0.25619
 30
0.0
 10
-0.09435
 20
-0.25619
 30
0.0
 10
-0.11662
 20
-0.28738
 30
0.0
 10
-0.07207
 20
-0.51015
 30
0.0
 10
-0.06762
 20
-0.5680700000000001
 30
0.0
  0
SPLINE
  5
60
330
1F
100
AcDbEntity
  8
Plan 1
100
AcDbSpline
210
0.0
220
0.0
230
1.0
 70
    11
 71
     3
 72
    56
 73
    52
 74
     0
 42
0.0000000001
 43
0.0000000001
 40
0.0
 40
0.0
 40
0.0
 40
0.0
 40
0.0769230769230769
 40
0.0769230769230769
 40
0.0769230769230769
 40
0.0769230769230769
 40
0.1538461538461539
 40
0.1538461538461539
 40
0.1538461538461539
 40
0.1538461538461539
 40
0.2307692307692308
 40
0.2307692307692308
 40
0.2307692307692308
 40
0.2307692307692308
 40
0.3076923076923077
 40
0.3076923076923077
 40
0.3076923076923077
 40
0.3076923076923077
 40
0.3846153846153846
 40
0.3846153846153846
 40
0.3846153846153846
 40
0.3846153846153846
 40
0.4615384615384616
 40
0.4615384615384616
 40
0.4615384615384616
 40
0.4615384615384616
 40
0.5384615384615386
 40
0.5384615384615386
 40
0.5384615384615386
 40
0.5384615384615386
 40
0.6153846153846154
 40
0.6153846153846154
 40
0.6153846153846154
 40
0.6153846153846154
 40
0.6923076923076923
 40
0.6923076923076923
 40
0.6923076923076923
 40
0.6923076923076923
 40
0.7692307692307692
 40
0.7692307692307692
 40
0.7692307692307692
 40
0.7692307692307692
 40
0.846153846153846
 40
0.846153846153846
 40
0.846153846153846
 40
0.846153846153846
 40
0.9230769230769229
 40
0.9230769230769229
 40
0.9230769230769229
 40
0.9230769230769229
 40
1.0
 40
1.0
 40
1.0
 40
1.0
 10
0.01115
 20
-0.63936
 30
0.0
 10
0.01115
 20
-0.6126200000000001
 30
0.0
 10
0.12253
 20
-0.3052
 30
0.0
 10
0.07352
 20
-0.35421
 30
0.0
 10
0.07352
 20
-0.35421
 30
0.0
 10
0.03342
 20
-0.3943100000000001
 30
0.0
 10
0.01115
 20
-0.64827
 30
0.0
 10
-0.03786
 20
-0.6527200000000001
 30
0.0
 10
-0.03786
 20
-0.6527200000000001
 30
0.0
 10
-0.03786
 20
-0.6527200000000001
 30
0.0
 10
-0.04677
 20
-0.6527200000000001
 30
0.0
 10
-0.04677
 20
-0.6527200000000001
 30
0.0
 10
-0.04677
 20
-0.6527200000000001
 30
0.0
 10
-0.04677
 20
-0.6527200000000001
 30
0.0
 10
-0.18044
 20
-0.3631200000000001
 30
0.0
 10
-0.18044
 20
-0.3631200000000001
 30
0.0
 10
-0.18044
 20
-0.3631200000000001
 30
0.0
 10
-0.18044
 20
-0.3631200000000001
 30
0.0
 10
-0.18935
 20
-0.36757
 30
0.0
 10
-0.18935
 20
-0.36757
 30
0.0
 10
-0.18935
 20
-0.36757
 30
0.0
 10
-0.19826
 20
-0.38985
 30
0.0
 10
-0.12697
 20
-0.54579
 30
0.0
 10
-0.1136
 20
-0.5769800000000001
 30
0.0
 10
-0.1136
 20
-0.5769800000000001
 30
0.0
 10
-0.10469
 20
-0.5948
 30
0.0
 10
-0.09578
 20
-0.6126200000000001
 30
0.0
 10
-0.09133
 20
-0.6304500000000001
 30
0.0
 10
-0.09133
 20
-0.6304500000000001
 30
0.0
 10
-0.07796
 20
-0.675
 30
0.0
 10
-0.10915
 20
-0.64827
 30
0.0
 10
-0.09133
 20
-0.6794600000000001
 30
0.0
 10
-0.09133
 20
-0.6794600000000001
 30
0.0
 10
-0.07796
 20
-0.69728
 30
0.0
 10
-0.05123
 20
-0.6794600000000001
 30
0.0
 10
-0.02895
 20
-0.68391
 30
0.0
 10
-0.02895
 20
-0.68391
 30
0.0
 10
0.01115
 20
-0.68391
 30
0.0
 10
-0.00667
 20
-0.69728
 30
0.0
 10
0.02006
 20
-0.7061900000000001
 30
0.0
 10
0.02006
 20
-0.7061900000000001
 30
0.0
 10
0.02006
 20
-0.7061900000000001
 30
0.0
 10
0.02451
 20
-0.7061900000000001
 30
0.0
 10
0.02451
 20
-0.7061900000000001
 30
0.0
 10
0.02451
 20
-0.7061900000000001
 30
0.0
 10
0.02451
 20
-0.7061900000000001
 30
0.0
 10
0.06016
 20
-0.63936
 30
0.0
 10
0.06016
 20
-0.63936
 30
0.0
 10
0.06016
 20
-0.63936
 30
0.0
 10
0.06016
 20
-0.63936
 30
0.0
 10
0.01115
 20
-0.63936
 30
0.0
 10
0.01115
 20
-0.63936
 30
0.0
  0
SPLINE
  5
61
330
1F
100
AcDbEntity
  8
Plan 1
100
AcDbSpline
210
0.0
220
0.0
230
1.0
 70
    11
 71
     3
 72
    28
 73
    24
 74
     0
 42
0.0000000001
 43
0.0000000001
 40
0.0
 40
0.0
 40
0.0
 40
0.0
 40
0.1666666666666667
 40
0.1666666666666667
 40
0.1666666666666667
 40
0.1666666666666667
 40
0.3333333333333333
 40
0.3333333333333333
 40
0.3333333333333333
 40
0.3333333333333333
 40
0.5
 40
0.5
 40
0.5
 40
0.5
 40
0.6666666666666666
 40
0.6666666666666666
 40
0.6666666666666666
 40
0.6666666666666666
 40
0.8333333333333333
 40
0.8333333333333333
 40
0.8333333333333333
 40
0.8333333333333333
 40
1.0
 40
1.0
 40
1.0
 40
1.0
 10
-0.13588
 20
-0.7507400000000001
 30
0.0
 10
-0.13143
 20
-0.73738
 30
0.0
 10
-0.1136
 20
-0.675
 30
0.0
 10
-0.1136
 20
-0.6660900000000001
 30
0.0
 10
-0.1136
 20
-0.6660900000000001
 30
0.0
 10
-0.1136
 20
-0.6527200000000001
 30
0.0
 10
-0.18935
 20
-0.55025
 30
0.0
 10
-0.20271
 20
-0.5324300000000001
 30
0.0
 10
-0.20271
 20
-0.5324300000000001
 30
0.0
 10
-0.20271
 20
-0.5324300000000001
 30
0.0
 10
-0.22053
 20
-0.54134
 30
0.0
 10
-0.22053
 20
-0.54134
 30
0.0
 10
-0.22053
 20
-0.54134
 30
0.0
 10
-0.20717
 20
-0.57252
 30
0.0
 10
-0.14034
 20
-0.6527200000000001
 30
0.0
 10
-0.14034
 20
-0.675
 30
0.0
 10
-0.14034
 20
-0.675
 30
0.0
 10
-0.14034
 20
-0.7106400000000001
 30
0.0
 10
-0.17152
 20
-0.7774800000000001
 30
0.0
 10
-0.17598
 20
-0.81757
 30
0.0
 10
-0.17598
 20
-0.81757
 30
0.0
 10
-0.14034
 20
-0.81757
 30
0.0
 10
-0.14479
 20
-0.78193
 30
0.0
 10
-0.13588
 20
-0.7507400000000001
 30
0.0
  0
SPLINE
  5
62
330
1F
100
AcDbEntity
  8
Plan 1
100
AcDbSpline
210
0.0
220
0.0
230
1.0
 70
    11
 71
     3
 72
    28
 73
    24
 74
     0
 42
0.0000000001
 43
0.0000000001
 40
0.0
 40
0.0
 40
0.0
 40
0.0
 40
0.1666666666666667
 40
0.1666666666666667
 40
0.1666666666666667
 40
0.1666666666666667
 40
0.3333333333333333
 40
0.3333333333333333
 40
0.3333333333333333
 40
0.3333333333333333
 40
0.5
 40
0.5
 40
0.5
 40
0.5
 40
0.6666666666666666
 40
0.6666666666666666
 40
0.6666666666666666
 40
0.6666666666666666
 40
0.8333333333333333
 40
0.8333333333333333
 40
0.8333333333333333
 40
0.8333333333333333
 40
1.0
 40
1.0
 40
1.0
 40
1.0
 10
0.08689
 20
-0.67054
 30
0.0
 10
0.08689
 20
-0.6616300000000001
 30
0.0
 10
0.15372
 20
-0.5769800000000001
 30
0.0
 10
0.15372
 20
-0.5680700000000001
 30
0.0
 10
0.15372
 20
-0.5680700000000001
 30
0.0
 10
0.15372
 20
-0.5547000000000001
 30
0.0
 10
0.14927
 20
-0.5547000000000001
 30
0.0
 10
0.14035
 20
-0.5547000000000001
 30
0.0
 10
0.14035
 20
-0.5547000000000001
 30
0.0
 10
0.1359
 20
-0.5547000000000001
 30
0.0
 10
0.06461
 20
-0.6527200000000001
 30
0.0
 10
0.06461
 20
-0.6660900000000001
 30
0.0
 10
0.06461
 20
-0.6660900000000001
 30
0.0
 10
0.06461
 20
-0.6660900000000001
 30
0.0
 10
0.06461
 20
-0.675
 30
0.0
 10
0.06461
 20
-0.675
 30
0.0
 10
0.06461
 20
-0.675
 30
0.0
 10
0.06461
 20
-0.6928200000000001
 30
0.0
 10
0.11808
 20
-0.8532200000000001
 30
0.0
 10
0.14035
 20
-0.8487600000000001
 30
0.0
 10
0.14035
 20
-0.8487600000000001
 30
0.0
 10
0.15818
 20
-0.8487600000000001
 30
0.0
 10
0.08689
 20
-0.6928200000000001
 30
0.0
 10
0.08689
 20
-0.67054
 30
0.0
  0
SPLINE
  5
63
330
1F
100
AcDbEntity
  8
Plan 1
100
AcDbSpline
210
0.0
220
0.0
230
1.0
 70
    11
 71
     3
 72
    68
 73
    64
 74
     0
 42
0.0000000001
 43
0.0000000001
 40
0.0
 40
0.0
 40
0.0
 40
0.0
 40
0.0625
 40
0.0625
 40
0.0625
 40
0.0625
 40
0.125
 40
0.125
 40
0.125
 40
0.125
 40
0.1875
 40
0.1875
 40
0.1875
 40
0.1875
 40
0.25
 40
0.25
 40
0.25
 40
0.25
 40
0.3125
 40
0.3125
 40
0.3125
 40
0.3125
 40
0.375
 40
0.375
 40
0.375
 40
0.375
 40
0.4375
 40
0.4375
 40
0.4375
 40
0.4375
 40
0.5
 40
0.5
 40
0.5
 40
0.5
 40
0.5625
 40
0.5625
 40
0.5625
 40
0.5625
 40
0.625
 40
0.625
 40
0.625
 40
0.625
 40
0.6875
 40
0.6875
 40
0.6875
 40
0.6875
 40
0.75
 40
0.75
 40
0.75
 40
0.75
 40
0.8125
 40
0.8125
 40
0.8125
 40
0.8125
 40
0.875
 40
0.875
 40
0.875
 40
0.875
 40
0.9375
 40
0.9375
 40
0.9375
 40
0.9375
 40
1.0
 40
1.0
 40
1.0
 40
1.0
 10
-0.03786
 20
-0.8398500000000001
 30
0.0
 10
-0.03786
 20
-0.8398500000000001
 30
0.0
 10
-0.0245
 20
-0.8264900000000001
 30
0.0
 10
-0.0245
 20
-0.8264900000000001
 30
0.0
 10
-0.0245
 20
-0.8264900000000001
 30
0.0
 10
-0.0245
 20
-0.8264900000000001
 30
0.0
 10
-0.03341
 20
-0.81757
 30
0.0
 10
-0.03341
 20
-0.81757
 30
0.0
 10
-0.03341
 20
-0.81757
 30
0.0
 10
-0.03341
 20
-0.81757
 30
0.0
 10
-0.01113
 20
-0.78193
 30
0.0
 10
-0.01113
 20
-0.78193
 30
0.0
 10
-0.01113
 20
-0.78193
 30
0.0
 10
-0.01113
 20
-0.78193
 30
0.0
 10
-0.02895
 20
-0.7774800000000001
 30
0.0
 10
-0.02895
 20
-0.7774800000000001
 30
0.0
 10
-0.02895
 20
-0.7774800000000001
 30
0.0
 10
-0.02895
 20
-0.7507400000000001
 30
0.0
 10
-0.03786
 20
-0.71955
 30
0.0
 10
-0.06014
 20
-0.71955
 30
0.0
 10
-0.06014
 20
-0.71955
 30
0.0
 10
-0.06014
 20
-0.71955
 30
0.0
 10
-0.07351
 20
-0.71955
 30
0.0
 10
-0.07351
 20
-0.71955
 30
0.0
 10
-0.07351
 20
-0.71955
 30
0.0
 10
-0.09133
 20
-0.71955
 30
0.0
 10
-0.09578
 20
-0.7418300000000001
 30
0.0
 10
-0.09578
 20
-0.7552000000000001
 30
0.0
 10
-0.09578
 20
-0.7552000000000001
 30
0.0
 10
-0.09578
 20
-0.7641100000000001
 30
0.0
 10
-0.08687
 20
-0.78193
 30
0.0
 10
-0.08687
 20
-0.78639
 30
0.0
 10
-0.08687
 20
-0.78639
 30
0.0
 10
-0.10024
 20
-0.8042100000000001
 30
0.0
 10
-0.10024
 20
-0.7953000000000001
 30
0.0
 10
-0.1136
 20
-0.8042100000000001
 30
0.0
 10
-0.1136
 20
-0.8042100000000001
 30
0.0
 10
-0.13143
 20
-0.82203
 30
0.0
 10
-0.1136
 20
-0.81757
 30
0.0
 10
-0.13143
 20
-0.8354
 30
0.0
 10
-0.13143
 20
-0.8354
 30
0.0
 10
-0.13588
 20
-0.8398500000000001
 30
0.0
 10
-0.17152
 20
-0.8532200000000001
 30
0.0
 10
-0.18935
 20
-0.8621300000000001
 30
0.0
 10
-0.18935
 20
-0.8621300000000001
 30
0.0
 10
-0.18935
 20
-0.8621300000000001
 30
0.0
 10
-0.20271
 20
-0.9957900000000001
 30
0.0
 10
-0.20271
 20
-0.9957900000000001
 30
0.0
 10
-0.20271
 20
-0.9957900000000001
 30
0.0
 10
-0.20717
 20
-1.0448
 30
0.0
 10
-0.16261
 20
-0.95569
 30
0.0
 10
-0.16261
 20
-0.9378700000000001
 30
0.0
 10
-0.16261
 20
-0.9378700000000001
 30
0.0
 10
-0.16261
 20
-0.9289600000000001
 30
0.0
 10
-0.16261
 20
-0.93342
 30
0.0
 10
-0.16707
 20
-0.9245000000000001
 30
0.0
 10
-0.16707
 20
-0.9245000000000001
 30
0.0
 10
-0.14479
 20
-0.8933200000000001
 30
0.0
 10
-0.16261
 20
-0.8754900000000001
 30
0.0
 10
-0.12697
 20
-0.8621300000000001
 30
0.0
 10
-0.12697
 20
-0.8621300000000001
 30
0.0
 10
-0.10024
 20
-0.8532200000000001
 30
0.0
 10
-0.06459
 20
-0.8398500000000001
 30
0.0
 10
-0.03786
 20
-0.8398500000000001
 30
0.0
  0
SPLINE
  5
64
330
1F
100
AcDbEntity
  8
Plan 1
100
AcDbSpline
210
0.0
220
0.0
230
1.0
 70
    11
 71
     3
 72
    32
 73
    28
 74
     0
 42
0.0000000001
 43
0.0000000001
 40
0.0
 40
0.0
 40
0.0
 40
0.0
 40
0.1428571428571429
 40
0.1428571428571429
 40
0.1428571428571429
 40
0.1428571428571429
 40
0.2857142857142857
 40
0.2857142857142857
 40
0.2857142857142857
 40
0.2857142857142857
 40
0.4285714285714286
 40
0.4285714285714286
 40
0.4285714285714286
 40
0.4285714285714286
 40
0.5714285714285714
 40
0.5714285714285714
 40
0.5714285714285714
 40
0.5714285714285714
 40
0.7142857142857142
 40
0.7142857142857142
 40
0.7142857142857142
 40
0.7142857142857142
 40
0.857142857142857
 40
0.857142857142857
 40
0.857142857142857
 40
0.857142857142857
 40
1.0
 40
1.0
 40
1.0
 40
1.0
 10
0.0156
 20
-0.87104
 30
0.0
 10
0.0156
 20
-0.9111400000000001
 30
0.0
 10
0.01115
 20
-0.9868800000000001
 30
0.0
 10
0.04234
 20
-1.0047
 30
0.0
 10
0.04234
 20
-1.0047
 30
0.0
 10
0.07352
 20
-1.01807
 30
0.0
 10
0.14927
 20
-1.07599
 30
0.0
 10
0.15372
 20
-1.07599
 30
0.0
 10
0.15372
 20
-1.07599
 30
0.0
 10
0.15372
 20
-1.07599
 30
0.0
 10
0.1359
 20
-0.9378700000000001
 30
0.0
 10
0.1359
 20
-0.9378700000000001
 30
0.0
 10
0.1359
 20
-0.9378700000000001
 30
0.0
 10
0.1359
 20
-0.9378700000000001
 30
0.0
 10
0.14035
 20
-0.93342
 30
0.0
 10
0.14035
 20
-0.93342
 30
0.0
 10
0.14035
 20
-0.93342
 30
0.0
 10
0.14035
 20
-0.8799500000000001
 30
0.0
 10
0.16709
 20
-0.92005
 30
0.0
 10
0.12699
 20
-0.87104
 30
0.0
 10
0.12699
 20
-0.87104
 30
0.0
 10
0.11362
 20
-0.8532200000000001
 30
0.0
 10
0.0958
 20
-0.8398500000000001
 30
0.0
 10
0.07798
 20
-0.8264900000000001
 30
0.0
 10
0.07798
 20
-0.8264900000000001
 30
0.0
 10
0.0156
 20
-0.78639
 30
0.0
 10
0.0156
 20
-0.8131200000000001
 30
0.0
 10
0.0156
 20
-0.87104
 30
0.0
  0
SPLINE
  5
65
330
1F
100
AcDbEntity
  8
Plan 1
100
AcDbSpline
210
0.0
220
0.0
230
1.0
 70
    11
 71
     3
 72
    24
 73
    20
 74
     0
 42
0.0000000001
 43
0.0000000001
 40
0.0
 40
0.0
 40
0.0
 40
0.0
 40
0.2
 40
0.2
 40
0.2
 40
0.2
 40
0.4
 40
0.4
 40
0.4
 40
0.4
 40
0.6000000000000001
 40
0.6000000000000001
 40
0.6000000000000001
 40
0.6000000000000001
 40
0.8
 40
0.8
 40
0.8
 40
0.8
 40
1.0
 40
1.0
 40
1.0
 40
1.0
 10
-0.21162
 20
-1.0448
 30
0.0
 10
-0.20271
 20
-1.05817
 30
0.0
 10
-0.10915
 20
-1.125
 30
0.0
 10
-0.10024
 20
-1.125
 30
0.0
 10
-0.10024
 20
-1.125
 30
0.0
 10
-0.10024
 20
-1.125
 30
0.0
 10
-0.01558
 20
-1.125
 30
0.0
 10
-0.01558
 20
-1.125
 30
0.0
 10
-0.01558
 20
-1.125
 30
0.0
 10
0.04234
 20
-1.125
 30
0.0
 10
0.07352
 20
-1.09827
 30
0.0
 10
0.11808
 20
-1.08936
 30
0.0
 10
0.11808
 20
-1.08936
 30
0.0
 10
0.11362
 20
-1.05371
 30
0.0
 10
0.01115
 20
-1.00025
 30
0.0
 10
-0.02004
 20
-1.00025
 30
0.0
 10
-0.02004
 20
-1.00025
 30
0.0
 10
-0.09578
 20
-1.00025
 30
0.0
 10
-0.16707
 20
-1.01807
 30
0.0
 10
-0.21162
 20
-1.0448
 30
0.0
  0
SPLINE
  5
66
330
1F
100
AcDbEntity
  8
Plan 1
100
AcDbSpline
210
0.0
220
0.0
230
1.0
 70
    11
 71
     3
 72
    20
 73
    16
 74
     0
 42
0.0000000001
 43
0.0000000001
 40
0.0
 40
0.0
 40
0.0
 40
0.0
 40
0.25
 40
0.25
 40
0.25
 40
0.25
 40
0.5
 40
0.5
 40
0.5
 40
0.5
 40
0.75
 40
0.75
 40
0.75
 40
0.75
 40
1.0
 40
1.0
 40
1.0
 40
1.0
 10
-0.3621
 20
-0.22532
 30
0.0
 10
-0.32856
 20
-0.19309
 30
0.0
 10
-0.4432700000000001
 20
-0.07669
 30
0.0
 10
-0.4775800000000001
 20
-0.02912
 30
0.0
 10
-0.4775800000000001
 20
-0.02912
 30
0.0
 10
-0.4977800000000001
 20
0.00056
 30
0.0
 10
-0.6110500000000001
 20
0.1728
 30
0.0
 10
-0.6288600000000001
 20
0.15867
 30
0.0
 10
-0.6288600000000001
 20
0.15867
 30
0.0
 10
-0.6743100000000001
 20
0.12039
 30
0.0
 10
-0.54964
 20
0.004
 30
0.0
 10
-0.5193800000000001
 20
-0.03554
 30
0.0
 10
-0.5193800000000001
 20
-0.03554
 30
0.0
 10
-0.48708
 20
-0.07907
 30
0.0
 10
-0.39421
 20
-0.2017
 30
0.0
 10
-0.3621
 20
-0.22532
 30
0.0
  0
ENDSEC
  0
SECTION
  2
OBJECTS
  0
DICTIONARY
  5
C
330
0
100
AcDbDictionary
281
     1
  3
ACAD_GROUP
350
D
  3
ACAD_LAYOUT
350
1A
  3
ACAD_MLINESTYLE
350
17
  3
ACAD_PLOTSETTINGS
350
19
  3
ACAD_PLOTSTYLENAME
350
E
  0
DICTIONARY
  5
D
102
{ACAD_REACTORS
330
C
102
}
330
C
100
AcDbDictionary
281
     1
  0
DICTIONARY
  5
1A
102
{ACAD_REACTORS
330
C
102
}
330
C
100
AcDbDictionary
281
     1
  3
Layout1
350
1E
  3
Layout2
350
26
  3
Model
350
22
  0
DICTIONARY
  5
17
102
{ACAD_REACTORS
330
C
102
}
330
C
100
AcDbDictionary
281
     1
  3
Standard
350
18
  0
DICTIONARY
  5
19
102
{ACAD_REACTORS
330
C
102
}
330
C
100
AcDbDictionary
281
     1
  0
ACDBDICTIONARYWDFLT
  5
E
102
{ACAD_REACTORS
330
C
102
}
330
C
100
AcDbDictionary
281
     1
  3
Normal
350
F
100
AcDbDictionaryWithDefault
340
F
  0
LAYOUT
  5
1E
102
{ACAD_REACTORS
330
1A
102
}
330
1A
100
AcDbPlotSettings
  1

  2

  4

  6

 40
0.0
 41
0.0
 42
0.0
 43
0.0
 44
0.0
 45
0.0
 46
0.0
 47
0.0
 48
0.0
 49
0.0
140
0.0
141
0.0
142
1.0
143
1.0
 70
   688
 72
     0
 73
     0
 74
     5
  7

 75
    16
 76
     0
 77
     2
 78
   300
147
1.0
148
0.0
149
0.0
100
AcDbLayout
  1
Layout1
 70
     1
 71
     1
 10
0.0
 20
0.0
 11
12.0
 21
9.0
 12
0.0
 22
0.0
 32
0.0
 14
1.000000000000000E+20
 24
1.000000000000000E+20
 34
1.000000000000000E+20
 15
-1.000000000000000E+20
 25
-1.000000000000000E+20
 35
-1.000000000000000E+20
146
0.0
 13
0.0
 23
0.0
 33
0.0
 16
1.0
 26
0.0
 36
0.0
 17
0.0
 27
1.0
 37
0.0
 76
     0
330
1B
  0
LAYOUT
  5
26
102
{ACAD_REACTORS
330
1A
102
}
330
1A
100
AcDbPlotSettings
  1

  2

  4

  6

 40
0.0
 41
0.0
 42
0.0
 43
0.0
 44
0.0
 45
0.0
 46
0.0
 47
0.0
 48
0.0
 49
0.0
140
0.0
141
0.0
142
1.0
143
1.0
 70
   688
 72
     0
 73
     0
 74
     5
  7

 75
    16
 76
     0
 77
     2
 78
   300
147
1.0
148
0.0
149
0.0
100
AcDbLayout
  1
Layout2
 70
     1
 71
     2
 10
0.0
 20
0.0
 11
0.0
 21
0.0
 12
0.0
 22
0.0
 32
0.0
 14
0.0
 24
0.0
 34
0.0
 15
0.0
 25
0.0
 35
0.0
146
0.0
 13
0.0
 23
0.0
 33
0.0
 16
1.0
 26
0.0
 36
0.0
 17
0.0
 27
1.0
 37
0.0
 76
     0
330
23
  0
LAYOUT
  5
22
102
{ACAD_REACTORS
330
1A
102
}
330
1A
100
AcDbPlotSettings
  1

  2

  4

  6

 40
0.0
 41
0.0
 42
0.0
 43
0.0
 44
0.0
 45
0.0
 46
0.0
 47
0.0
 48
0.0
 49
0.0
140
0.0
141
0.0
142
1.0
143
1.0
 70
  1712
 72
     0
 73
     0
 74
     0
  7

 75
     0
 76
     0
 77
     2
 78
   300
147
1.0
148
0.0
149
0.0
100
AcDbLayout
  1
Model
 70
     1
 71
     0
 10
0.0
 20
0.0
 11
0.0
 21
0.0
 12
0.0
 22
0.0
 32
0.0
 14
-0.87548
 24
-1.125
 34
0.0
 15
0.8754999999999999
 25
1.125
 35
0.0
146
0.0
 13
0.0
 23
0.0
 33
0.0
 16
1.0
 26
0.0
 36
0.0
 17
0.0
 27
1.0
 37
0.0
 76
     0
330
1F
  0
MLINESTYLE
  5
18
102
{ACAD_REACTORS
330
17
102
}
330
17
100
AcDbMlineStyle
  2
Standard
 70
     0
  3

 62
   256
 51
90.0
 52
90.0
 71
     2
 49
0.5
 62
   256
  6
BYLAYER
 49
-0.5
 62
   256
  6
BYLAYER
  0
ACDBPLACEHOLDER
  5
F
102
{ACAD_REACTORS
330
E
102
}
330
E
  0
ENDSEC
  0
EOF
